• Streaming gitaar liedjes spelen
  • Leer gitaar spelen & gitaarlessen
  • 75.000 leden
 e|----------1-/-3-/5------------------------------------------------
        b|-------------------------------0-1-3----0--1-------0--------------
        g|--------------------------------------2-------0-h-2----0-2------0-
        D|-----------------------------------------------------3-----2-3----
        A|------------------------------------------------------------------
        E|-0----------------------------------------------------------------


        e|-----------------------------------------------------------------
        b|-----------------------------------------------------------------
        g|--------------------------------------------------------------0--
        D|---0-h-2-h-3-p-2-p-0-h-2-p-0-h-2-----------0---------------------
        A|-----------------------------------2-2----3--p--2--0-------------
        E|-------------------------------------------------------0-h-1-----

        e|------------------------------------|
        b|------------------------------------|
        g|----------------------------2-------|
        D|-------------------------0--2-------|
        A|-3--------0----------3------0-------|
        E|----1-p-3----1----------------------|


        (Both guitars)

        e|-0----------0------------------0------------------|
        b|-0----------0------------------0------------------|
        g|-4----------4-/-5--2----------2-/-4-/-5--5------|
        D|--------------------------------------------------|
        A|--------------------------------------------------|
        E|--------------------------------------------------|

        play 8 times

        e|---------0-----------0---|
        b|---------0-----------0---|
        g|-2-h-4-------4-/-5-------|
        D|-------------------------|
        A|-------------------------|
        E|-------------------------|

        play 8 times

        e|--------------------------------------------------|
        b|--------------------------------------------------|
        g|--------------------------------------------------|
        D|--------------------------------------------------|
        A|--------------------(15)-*********-(15)-*********-|
        E|--X-X-X-X---X---X---(15)-*********-(15)-*********-|

        
        

        Verse:
        
        Angus plays this 

        
        e|-0----------0------------------0------------------|
        b|-0----------0------------------0------------------|
        g|-4----------4-/-5--2----------2-/-4-/-5--5------|
        D|--------------------------------------------------|
        A|--------------------------------------------------|
        E|--------------------------------------------------|

        Malcolm play chourds over the verse

        E5                                         E5
        theres fight-in' on___ the       left and march-in' on__ the right,
                E5                             E5
        Don't look up in_____ the sky, Your gon-na die___ of fright!
        B5   C5    G5  A5               B5
        Here comes the ra-zor's edge______
               E5                      E5
        You're liv-in' on____ the edge dont know wrong from right.
                  E5                                E5
        They're breathing down your neck,__ your runn-in' out-ta lives
            B5   C5    G5  A5
        and here comes the raz-ors edge.____
        A5                 B5
        Ra-zors___ edge____. _________The Razors edge


        Chours:

        e|----------------------------------------------------------------
        b|----------------------------------------------------------------
        g|----------------------------------------------------------------
        D|-2----2----2----------------------2----2----2-------------------
        A|-2----2-
De rest van dit nummer alleen voor Gitaartabs leden! Maak gratis Gitaartabs account aan . 
Gitaar Tabs

Download, print en speel de Tab ♪ Ac/dc - Razor's Edge

Meld je aan en print, download of speel binnen 15 sec mee Tab ♫ Ac/dc - Razor's Edge.
Reeds 70.000 gitaristen zijn je voorgegaan.

Gratis Aanmelden Gitaartabs