• Streaming gitaar liedjes spelen
  • Leer gitaar spelen & gitaarlessen
  • 75.000 leden
  Chicken-pickin                                                   (3 Times)
E-------------||------------------|------------------|-----------------------||
B--0---2---3--||---2---2---3------|-------0---2---3--|---2---2---3-----------||
G--1---2---4--||.--2---2---4------|-------1---2---4--|---2---2---4------9\-.||
D-------------||.-----------------|---2--------------|------------------9\-.||
A-------------||---0---0---0------|---2--------------|---0---0---0------7\--||
E-------------||---------------3--|---0--------------|---------------3--0----||


E--------------|-------------------|-------------------|------------------|
B--0---2---3---|----2---2---3------|--------0---2---3--|---2---2----------|
G--1---2---4---|----2---2---4------|--------1---2---4--|---2---2-------1--|
D--------------|-------------------|---2---------------|---------------2--|
A--------------|----0---0---0------|---2---------------|---0---0-------2--|
E--------------|----------------3--|---0---------------|-----------3---0--|


E--------------|------------------|------------------|------------------------|
B--0---2---3---|---2---2---3------|-------0---2---3--|---2---2---3------------|
G--1---2---4---|---2---2---4------|-------1---2---4--|---2---2---4------9\---|
D--------------|------------------|---2--------------|------------------9\---|
A--------------|---0---0---0------|---2--------------|---0---0---0------7\---|
E--------------|---------------3--|---0--------------|---------------3--0-----|


E--------------|------------------|------------------|------------------------|
B--0---2---3---|---2---2---3------|-------0---2---3--|---2---2---3------------|
G--1---2---4---|---2---2---4------|-------1---2---4--|---2---2---4------9-----|
D--------------|------------------|---2--------------|------------------9-----|
A--------------|---0---0---0------|---2--------------|---0---0---0------7-----|
E--------------|---------------3--|---0--------------|---------------3--0-----|

  Heavy decibels are playin on my guitar. We got vibrations comin up from the
E-----|---------------------|-----------------------|-------------------------
B-----|---------------------|-----------------------|-------------------------
G-----|-------------------2-|--------------------9--|-----------------2-------
D--2--|-------------------2-|--2---4---2----9----9--|-----------------2-------
A--2--|---2---4---5-------0-|--0---0---0----911----|-2---4---2-------0-------
E--0--|---0---0---0---3-----|-----------------------|-0---0---0---3-----------

         Well just listenin 2 the rock that's givin 2 much noise.     Are U
E---------------------|----------------------|--------------------------------
B---------------------|----------------------|--------------------------------
G--------------4------|-------------------2--|--------------------4---4-------
D--2---4---2-------6--|-------------------2--|-----4---2------------6---6-----
A--0---0---0----------|--2---4----5-------0--|-----0---0----------------------
E---------------------|--0---0----0---3------|--------------------------------

  deaf, U wanna hear some more.                 We're just
E----------------------------|-------------------------------------------------
B----------------------------|-------------------------------------------------
G-------------------------2--|---2---------2----2----------------------------------
D-------------------------2--|---2----4----2----2----4-------------------------------
A--2-----4-----2----------0--|---0----0----0----0----0-----------------------------------
E--0-----0-----0-----3-------|----------------------------0---------------------------


   talkin'  about  the future,       forget   about   the   past.        It'll
E---------------------------------------|-------------------------------------
B----------------------3----------------|----4--------------------------------
G--------9-------------2----------------|----4--------------9-----------------
D--------9----
De rest van dit nummer alleen voor Gitaartabs leden! Maak gratis Gitaartabs account aan . 
Gitaar Tabs

Download, print en speel de Tab ♪ Ac/dc - Rock N' Roll Ain't Noise Pollution

Meld je aan en print, download of speel binnen 15 sec mee Tab ♫ Ac/dc - Rock N' Roll Ain't Noise Pollution.
Reeds 70.000 gitaristen zijn je voorgegaan.

Gratis Aanmelden Gitaartabs