• Streaming gitaar liedjes spelen
  • Leer gitaar spelen & gitaarlessen
  • 75.000 leden
  Intro:
E|--------------------|------------------|--------------------|--------------------|
B|--------------------|------------------|--------------------|--------------------|
G|--0--2--------------|------------------|--0--------2--------|--0-----------------|
D|--0--2--------------|------------------|--0--------2--------|--0--2--------------|
A|-----0--------------|------------------|-----------0--------|-----2--------------|
E|--3-----------------|------------------|--3-----------------|--3--0--------------|

Theme 1
this is the main riff where the guitars coming in (repeat):
|-------------------|--------------------------|-------------------------|
|-------------------|----------------------
De rest van dit nummer alleen voor Gitaartabs leden! Maak gratis Gitaartabs account aan . 
Gitaar Tabs

Download, print en speel de Tab ♪ Ac/dc - Safe In New York City

Meld je aan en print, download of speel binnen 15 sec mee Tab ♫ Ac/dc - Safe In New York City.
Reeds 70.000 gitaristen zijn je voorgegaan.

Gratis Aanmelden Gitaartabs

Comments Ac/dc - Safe In New York City - tab

kenworth

Kenworth 2012-04-01

ik denk dat je voor de rest het wel weet ;-)


Link

Link 2010-03-30

epic