• Streaming gitaar liedjes spelen
  • Leer gitaar spelen & gitaarlessen
  • 75.000 leden
Intro + verse:
E|------------------------|-------------------|----3--3-----3---------|
B|------------------------|----------------3--|----3--3--3--3--3------|
G|--0--2--0----0--2--2----|----------------2--|----0--0--2--0--2------|
D|--0--2--0----0--2--2----|----------------0--|----0--0--0--0--0------|
A|--0--0--0----0--0--0----|-------------------|-----------------------|
E|------------------------|-------------------|-----------------------|
                                                                
 
 before chorus:                                    new satellite
|-------------------|----3--3-----3----------|------------------|
|----------------3--|----3--3--3--3--3----3--|------------------|
|----------------2--|----0--0--2--0--2----2--|------------------|
|----------------0--|----0--0--0--0--0----0--|------------------|
|-------------------|------------------------|------------------|
|-------------------|------------------------|------------------|
  
Chorus:
  blues                       new satellite  blues 
|------------------------|-----------------------|
|------------------------|--------------------3--|
|--0--2--0----0--2--2----|------2--0----2--2--2--|
|--0--2--0----0--2--2----|------2--0----2--2--0--|
|--0--0--0----0--0--0----|------0-------0--0-----|
|------------------------|-----------------------|

                            new sat
De rest van dit nummer alleen voor Gitaartabs leden! Maak gratis Gitaartabs account aan . 
Gitaar Tabs

Download, print en speel de Tab ♪ Ac/dc - Satellite Blues

Meld je aan en print, download of speel binnen 15 sec mee Tab ♫ Ac/dc - Satellite Blues.
Reeds 70.000 gitaristen zijn je voorgegaan.

Gratis Aanmelden Gitaartabs

Comments Ac/dc - Satellite Blues - tab

kenworth

Kenworth 2012-04-01

de tekst