• Streaming gitaar liedjes spelen
  • Leer gitaar spelen & gitaarlessen
  • 75.000 leden
Intro (2x):
E|-------------------|------------------|-------------------|
B|-------------------|------------------|-------------------|
G|-------------------|------------------|----------------2--|
D|----------------2--|------------------|----------------2--|
A|----------------2--|------------------|----------------0--|
E|----------------0--|------------------|-------------------|

|--------------------|-------------------|------------------|
|--------------------|-------------------|------------------|
|--------------------|-------------------|------------------|
|-----2--------------|----------------2--|------------------|
|-----2--------------|----------------2--|------------------|
|-----0--------------|----------------0--|------------------|

|--------------------|
|--------------------|
|----------------2---|
|----------------2---|
|----------------0---|
|--------------------|

 Idle juveniles...
|--------------------|--------------------|------------------|
|--------------------|--------------------|------------------|
|-----------------2--|--------------------|------------------|
|----2------------2--|----2------------2--|------------------|
|----2------------0--|----2------------2--|------------------|
|----0---------------|----0------------0--|------------------|

|-------------------|--------------------|--------------------|
|-------------------|--------------------|--------------------|
|----------------2--|-----------------2--|--------------------|
|----------------2--|----2------------2--|----2------------2--|
|----------------0--|----2------------0--|----2------------2--|
|-------------------|----0---------------|----0------------0--|

|------------------|---------------------|---------------------|
|------------------|---------------------|---------------------|
|------------------|---------------------|---------------------|
|------------------|--------2-------2----|--------2-------2----|
|------------------|--------2-------2----|--------2-------2----|
|------------------|--------0----3--0----|--------0----3--0----|

|---------------------|------------------|
|---------------------|------------------|
|---------------------|------------------|
|--------2-------2----
De rest van dit nummer alleen voor Gitaartabs leden! Maak gratis Gitaartabs account aan . 
Gitaar Tabs

Download, print en speel de Tab ♪ Ac/dc - Shake A Leg

Meld je aan en print, download of speel binnen 15 sec mee Tab ♫ Ac/dc - Shake A Leg.
Reeds 70.000 gitaristen zijn je voorgegaan.

Gratis Aanmelden Gitaartabs

Comments Ac/dc - Shake A Leg - tab

kenworth

Kenworth 2012-03-27

Wij zijn de tabs aan het controleren omdat er een nieuwe site aankomt.
Nu is de tab in orde, maar er staat geen tekst bij, en dat is een van de dingen die we graag zien om de tab helemaal compleet te krijgen en zo aan te bieden aan de leden.
wil je deze bijvoegen?, en mocht je meer tabs hebben die zo gepost zijn wil je die dan ook compleet maken?
Alvast bedankt