• Streaming gitaar liedjes spelen
  • Leer gitaar spelen & gitaarlessen
  • 75.000 leden
Play this first, then a couple times over the next section
 ------------
 ------------
 -------2----
 -2-----2----
 -0-3-4-0----
 ------------

This is the main riff for the verses & the 1st half of the solo
 -3----2----3----2------2---------------------------------------------
 -0----3----0----3------3---------------------------------------------
 -0----2----0----2------2---2-----------------------------------------
 -0----0----0----0------0---2-----------------------------------------
 -------------------------3-0-----------------------------------------
 ---------------------------------------------------------------------

Or you can play it like this if your guitar sounds bad w/ open chords
( I think Angus plays open & Malcom plays power chords)
 ---------------------------------------------------------------------
 ---------------------------------------------------------------------
 -7----7----7----7------7---------------------------------------------
 -5----7----5----7------7---------------------------------------------
 ------5---------5------5--(7)---------------------------------------
De rest van dit nummer alleen voor Gitaartabs leden! Maak gratis Gitaartabs account aan . 
Gitaar Tabs

Download, print en speel de Tab ♪ Ac/dc - Shoot To Trill

Meld je aan en print, download of speel binnen 15 sec mee Tab ♫ Ac/dc - Shoot To Trill.
Reeds 70.000 gitaristen zijn je voorgegaan.

Gratis Aanmelden Gitaartabs