• Streaming gitaar liedjes spelen
  • Leer gitaar spelen & gitaarlessen
  • 75.000 leden
Intro Solo

-------------------------------------------------
-15^(17)-15-15^(17)---15(17)-12------------------
--------------------------------14-14(16)------14
-------------------------------------------------
-------------------------------------------------
-------------------------------------------------

-------------------------------------------------
-----12-15^12----12----------------12------------
-(16)---------14----14-12----14----12------------
--------------------------14----14----14-12--14--
-------------------------------------------------
-------------------------------------------------

----------12------------------------15(17)--12^15
-------12----15-15(17)-15(17)^15-12---------12^15
-12^13-------------------------------------------
-------------------------------------------------
-------------------------------------------------
-------------------------------------------------

-12-15^12----12----------------------------------
-12-12----15----15-12-15(17)-------15-15^12---12-
------------------------------14(16)--------14---
-------------------------------------------------
-------------------------------------------------
-------------------------------------------------

-------------------------------------------------
---------------------------12--------------------
-14-12---14-------15-14-14-12-------14(16)-14--12
-------14---14-12-------------14-----------------
-------------------------------------------------
-------------------------------------------------

------------------------------------------12-----
----------------------12-15^12----------12--15^12
-14^12-----12-14(16)-----------14-14(16)---------
-------14----------------------------------------
-------------------------------------------------
-------------------------------------------------

-------------------------------------------------
----15(17)--12------15---------------------------
-14------------14(16)-(16)^14^12-14^12---12------
---------------------------------------14---14-12
-------------------------------------------------
-------------------------------------------------

-------------------------------------------------
-------------------------------------------------
-12----------------------------------------------
----14--12---------------------------------------
-----------14--/---------------------------------
-------------------------------------------------

Rhythm guitar intro

-------------------------------------------------
-------------------------------------------------
-------------------------------------------------
------------------0^2----4---2--4----------------
-2-----4---2----4-0---0--0---0--0--0^2----4---2--
-0--0--0---0----0------------------0---0--0---0--

-------------------------------------------------
-------------------------------------------------
-------------------------------------------------
---------------------0^2----4---2--4--0^2-----4--
-4--0^2----4---2--4--0---0--0---0--0--0----0--0--
-0--0---0--0---0--0------------------------------

-------------------------------------------------
-------------------------------------------------
-------------------------------------------------
-2---4-------------------------------------------
-0---0--0^2----4--2--4--0^2----4--2-----4---4-4--
--------0---0--0--0--0--0---0--0--0--0--2---2-2-2

------------------------4-----3-----2-----0------
----------------------0-----0-----0-----0--------
--------------------4-----3-----2-----1-----0^1--
-2---2-2-----------------------------------------
-0---0-0-0--------------------------------------2
------------0-3---0------------------------------

-------------------------------------------------
-------------------------------------------------
-0^1---------------------------------------------
-----2-------------------------------------------
-------------------------------------------------
-------0-5---3-0---------------------------------

Rhythm figure 1

--------------------3----------------------------
--------------------3----------------------------
-----2--------------0-----------------2----------
-2---2----2---------0---2---------2---2-----2----
-2---0----2---------x---2---------2---0-----2----
-0-----3--0---------3---0---------0------3--0----

-3-3-3-3-3-3-3-3-3-3-3-3-------------------------
-3-3-3-3-3-3-3-3-3-3-3-3-------------------------
-0-0-0-0-0-0-0-0-0-0-0-0-------------------------
-0-0-0-0-0-0-0-0-0-0-0-0-------------------------
-x-x-x-x-x-x-x-x-x-x-x-x-------------------------
-3-3-3-3-3-3-3-3-3-3-3-3-------------------------


Chorus

-------------------------------------------------
-------------------------------------------------
-2----------2-------0^2---------2----------------
-2------4---2----4--0^2-----4---2--4--0^2-------2
-0---0--0---0----0--0----0--0---0--0--0^2----4--2
--------------------------------------0---0--0--0

-------------------------------------------------
-------------------------------------------------
-------------------------------------------------
----0^2---------2--------------------------------
-4--0^2-----4---2--------4---3--4---6--7----8--9-
-0--0----0--0---0----0---2---1--2---4--5----6--7-
(rhythm guitar)
-------------4-----3-----2-----0-----------------
-----------0-----0-----0-----0-------------------
---------4-----3-----2-----1------0^1----0^1-----
----------------------------------------------2--
--------------------------------------2----------
-0-3---0-----------------------------------------
(lead guitar)
----------12-------------------------------------
-------12----15-15(17)---15-12-------------------
-12^13-------------------------14--14(16)--14(16)
-------------------------------------------------
-------------------------------------------------
-------------------------------------------------

Guitar solo 1

-------------------------------------------------
-------------------------------------------------
-(13)^9-(13)^9--
De rest van dit nummer alleen voor Gitaartabs leden! Maak gratis Gitaartabs account aan . 
Gitaar Tabs

Download, print en speel de Tab ♪ Ac/dc - Show Business

Meld je aan en print, download of speel binnen 15 sec mee Tab ♫ Ac/dc - Show Business.
Reeds 70.000 gitaristen zijn je voorgegaan.

Gratis Aanmelden Gitaartabs