• Streaming gitaar liedjes spelen
  • Leer gitaar spelen & gitaarlessen
  • 75.000 leden
E    = 0-2-2-1-0-0
A7   = x-0-2-0-2-0
B7   = x-2-4-2-4-2

Als er in een gedeelte geen akkoorden staan dan moeten daar dezelfde
akkoorden gespeeld worden als in een gedeelte daarvoor. Je hoort vanzelf
welke akkoorden je bij dat gedeelte moet spelen.

Riff 3 en 4 zijn natuurlijk ook vanuit het gehele akkoord te spelen.

Riff 1:(verse)    Riff 3:(chorus)
    E7                E7
e |----------|    e |-----------------|
B |----------|    B |-----------------|
G |----------|    G |-----------------|
D |--------0-|    D |-----------------|
A |-2-2-4----|    A |-2-2-4-4-2-2-4-4-|
E |-0-0-0----|    E |-0-0-0-0-0-0-0-0-|

Riff 2:(verse)    Riff 4:(chorus)
    A7                E7
e |----------|    e |-----------------|
B |----------|    B |-----------------|
G |--------0-|    G |-----------------|
D |-2-2-4----|    D |-2-2-4-4-2-2-4-4-|
A |-0-0-0----|    A |-0-0-0-0-0-0-0-0-|
E |----------|    E |-----------------|

                E7
She gave me the Queen
                E7
She gave me the King
                     E7
She was wheelin' and dealin'
               E7
Just doin' her thing

                  A7
She was holdin' a pair
             A7
But I had to try
De rest van dit nummer alleen voor Gitaartabs leden! Maak gratis Gitaartabs account aan . 
Gitaar Tabs

Download, print en speel de Tab ♪ Ac/dc - The Jack

Meld je aan en print, download of speel binnen 15 sec mee Tab ♫ Ac/dc - The Jack.
Reeds 70.000 gitaristen zijn je voorgegaan.

Gratis Aanmelden Gitaartabs