• Streaming gitaar liedjes spelen
  • Leer gitaar spelen & gitaarlessen
  • 75.000 leden
Whole Lotta Rosie
AC DC


Introduction: (2 bar count in)

       A5  C5   D5    C5  A5 	Verse:		     A5  C5   D5    C5  A5
e|---------------------------||--------------------|--------------------------||
b|---------------------------||o-------------------|-------------------------o||
g|------2--5-----7-----5--2--||----(4 beats rest)--|--2--5-----7-----5--2-----||
d|------2--5-----7-----5--2--||--------------------|--2--5-----7-----5--2-----||
a|------0--3--0--5--0--3--0--||o-------------------|--0--3--0--5--0--3--0----o||
E|---------------------------||--------------------|--------------------------||
				         (Play this section 10 times)


e|---------------------------|--------------------------|----------------------|
b|---------------------------|--------------------------|----------------------|
g|-----(4 beats rest)--------|-----(4 beats rest)-------|----(4 beats rest)----|
d|---------------------------|--------------------------|----------------------|
a|---------------------------|--------------------------|----------------------|
E|---------------------------|--------------------------|----------------------|


     A5  C5   D5    C5  A5
e|---------------------------||-------------------------|-------------------------||
b|---------------------------||o------------------------|------------------------o||
g|------2--5-----7-----5--2--||----2--------2-----0--2--|-------------------------||
d|------2--5-----7-----5--2--||----2--------2-----0--2--|-------------------------||
a|------0--3--0--5--0--3--0--||o---0--0--0--0--0--0--0--|--0--3--0--5--0--3--0---o||
E|---------------------------||-------------------------|-------------------------||
					(Play this section 4 times)

Verse 1

e|-----------------------|-----------------------|------------------------|-----------------------|
b|-----------------------|-----------------------|------------------------|-----------------------|
g|--2--------2-----0--2--|-----------------------|---2--------2-----0--2--|-----------------------|
d|--2--------2-----0--2--|-----------------------|---2--------2-----0--2--|-----------------------|
a|--0--0--0--0--0--0--0--|--0--3--0--5--0--3--0--|---0--0--0--0--0--0--0--|--0--3--0--5--0--3--0--|
E|-----------------------|-----------------------|------------------------|-----------------------|

e|-----------------------|-----------------------|------------------------|-----------------------|
b|-----------------------|-----------------------|------------------------|-----------------------|
g|--2--------2-----0--2--|-----------------------|---2--------2-----0--2--|-----------------------|
d|--2--------2-----0--2--|-----------------------|---2--------2-----0--2--|-----------------------|
a|--0--0--0--0--0--0--0--|--0--3--0--5--0--3--0--|---0--0--0--0--0--0--0--|--0--3--0--5--0--3--0--|
E|-----------------------|-----------------------|------------------------|-----------------------|

e|-----------------------|-----------------------|------------------------|-----------------------|
b|-----------------------|-----------------------|------------------------|-----------------------|
g|--2--------2-----0--2--|-----------------------|---2--------2-----0--2--|-----------------------|
d|--2--------2-----0--2--|-----------------------|---2--------2-----0--2--|-----------------------|
a|--0--0--0--0--0--0--0--|--0--3--0--5--0--3--0--|---0--0--0--0--0--0--0--|--0--3--0--5--0--3--0--|
E|-----------------------|-----------------------|------------------------|-----------------------|

e|----------------------|-----------------------|------------------------|------------------------|
b|----------------------|-----------------------|------------------------|------------------------|
g|-2--------2-----0--2--|-----------------------|---2--------2-----0--2--|-2--2--2--2--2--2--2--2-|
d|-2--------2-----0--2--|-----------------------|---2--------2-----0--2--|-2--2--2--2--2--2--2--2-|
a|-0--0--0--0--0--0--0--|--0--3--0--5--0--3--0--|---0--0--0--0--0--0--0--|-0--0--0--0--0--0--0--0-|
E|----------------------|-----------------------|------------------------|------------------------|

Chorus:

      F5                        F5                     D5
e|-----------------------|----------------------|------------------------|-----------------------|
b|-----------------------|----------------------|----3-----3----3--------|-----------------------|
g|-----------------------|----------------------|----2-----2----2--------|-----------------------|
d|--3---3--3-------------|----(3)---------------|----0-----0----0--------|-----------------------|
a|--3---3--3-(Let Ring)--|----(3)---------------|------------------------|-----------------------|
E|--1---1--1-------------|----(1)---------------|------------------------|-----------------------|
   A5                G5                             A5                G5
e|-------------------3---|----------------------|---------------------3---|----------------------|
b|-------------------3---|----------------------|---------------------3---|----------------------|
g|-2--------------0--0---|----------------------|---2--------------0--0---|----------------------|
d|-2--------------0--0---|----------------------|---2--------------0--0---|----------------------|
a|-0--------------0------|----------------------|---0--------------0------|----------------------|
E|-------------------3---|----------------------|---------------------3---|----------------------|


   A5                G5                                G5    G5     G5        G5    G5    G5
e|-------------------3--|-----------------------|-------------------------|----------------------|
b|-------------------3--|-----------------------|------3------3------3----|---3-----3-----3------|
g|-2--------------0--0--|-----------------------|------0------0------0----|---0-----0-----0------|
d|-2--------------0--0--|-----------------------|------0------0------0----|---0-----0-----0------|
a|-0--------------0-----|-----------------------|-------------------------|----------------------|
E|-------------------3--|-----------------------|------3------2------3----|---2-----3-----4------|

e|----------------------|-----------------------|------------------------|-----------------------|
b|----------------------|-----------------------|------------------------|-----------------------|
g|-2--------2-----0--2--|-----------------------|---2--------2-----0--2--|-----------------------|
d|-2--------2-----0--2--|-----------------------|---2--------2-----0--2--|-----------------------|
a|-0--0--0--0--0--0--0--|--0--3--0--5--0--3--0--|---0--0--0--0--0--0--0--|--0--3--0--5--0--3--0--|
E|----------------------|-----------------------|------------------------|-----------------------|


Verse 2

e|----------------------|-----------------------|------------------------|-----------------------|
b|----------------------|-----------------------|------------------------|-----------------------|
g|-2--------2-----0--2--|-----------------------|---2--------2-----0--2--|-----------------------|
d|-2--------2-----0--2--|-----------------------|---2--------2-----0--2--|-----------------------|
a|-0--0--0--0--0--0--0--|--0--3--0--5--0--3--0--|---0--0--0--0--0--0--0--|--0--3--0--5--0--3--0--|
E|----------------------|-----------------------|--------
De rest van dit nummer alleen voor Gitaartabs leden! Maak gratis Gitaartabs account aan . 
Gitaar Tabs

Download, print en speel de Tab ♪ Ac/dc - Whole Lotta Rosie Tab

Meld je aan en print, download of speel binnen 15 sec mee Tab ♫ Ac/dc - Whole Lotta Rosie Tab.
Reeds 70.000 gitaristen zijn je voorgegaan.

Gratis Aanmelden Gitaartabs

Comments Ac/dc - Whole Lotta Rosie Tab - tab

steefsteur

Steefsteur 2013-05-10

goed maar geen tekst


kenworth

Kenworth 2011-05-10

Ik mis de tekst


moniquem

Moniquem 2011-02-18

waar is de songtekst