• Streaming gitaar liedjes spelen
  • Leer gitaar spelen & gitaarlessen
  • 80.000 leden
    F    D#
e|--------------------
B|--------------------
G|--10---8------------
D|--10---8------------
A|--8----6------------
E|--------------------

  INTRO FILL
e|-----------------------------------------
B|-----------------------------------------
G|-----5--------5------------5-------
>> Registreer, speel & download <<
Meld nu aan en speel de rest van Bad Religion - 1000 Memories (intro)

>> Registreer, speel & download <<
------
D|-----------------------------------3-----
A|--3-----5h6-------------3-----3--6-------
E|-----------------6-----------------------

  INTRO LEAD(let ring)
e|----------------------------
B|----1-1-1-1-1-1-1-1-1-1-1-1-
G|---5-5-5-5-5-5-5-5-5-5-5-5--
D|----------------------------

  

More info