• Streaming gitaar liedjes spelen
  • Leer gitaar spelen & gitaarlessen
  • 80.000 leden
  INTRO SLIDE 
D|--------
A|---8---
E|--------

   INTRO RHYTHM 
   F    C      G     A#    C        F     C     G     A#
G|---------------------------      -----------------------------
D|-------5-5-5-------3-3-3/5- x3   -------5-5-5-------3-3-33333-
A|-3-3-3-3-3-3-5-5-5-1-1-1/3-      -3-3-3-3-3-3-5-5-5-1-1-11111-
E|-1-1-1-------3-3-3---------      -1-1-1-------3-3-3-----------

  INTRO SOLO
  
e|-----------------------------1------------3-3--5-6-6/--
B|------------1--3-3--5-6~-5~----1----5-----3-3--5-6-6/--
G|------0-2-3----------------------2----
>> Registreer, speel & download <<
Meld nu aan en speel de rest van Bad Religion - A Streetkid Named Desire (intro)

>> Registreer, speel & download <<
5----------------
D|--333-----------------------------------5--------------
A|-------------------------------------------------------
E|-------------------------------------------------------

   INTRO SOLO (cont)
e|-1-1-1--3-5-6-------------------1----------------------
B|-1-1-1---------8-8--10-11~-10~----1----5------6666-6-/-
G|------------------------------------2----5----7777-7-/-
D|-------------------------------------------5--8888-8-/-
A|----------------------------------------------8888-8-/-
E|-------------------------------------------------------

More info