• Streaming gitaar liedjes spelen
  • Leer gitaar spelen & gitaarlessen
  • 80.000 leden
7x
||-----------------------------||-----------------------|-----------------------
||-----------------------------||-----------------------|-----------------------
||*--7--------------5--8--10--*||--7--------------5-----|-----------------------
||*--7--------------5--8--10--*||--7--------------5--8--|--7--7--7--5--5--8---

||---5--x--x--x--x--3--6--8----||--5--x--x--x--x--3--8--|--7--7--7--5--5--8----
||-----------------------------||--------------------6--|--5--5--5--3--3--6-----

                                                                    
3x
------|-----------------------|---------||-----------------------------||-------
------|-----------------------|---------||-----------------------------||-------
------|-----------------------|---------||*--7--------------5--8--10--*||--7--
>> Registreer, speel & download <<
Meld nu aan en speel de rest van Bad Religion - Automatic Man

>> Registreer, speel & download <<
--
8--8--|--5--5--7--7--7--5--5--|--8--10--||*--7--------------5--8--10--*||--7--
8--8--|--5--5--7--7--7--5--5--|--8--10--||---5--x--x--x--x--3--6--8----||--5---
6--6--|--3--3--5--5--5--3--3--|--6--8---||-----------------------------||-------
                                                                              

------------------|--------------------------|-----------------------|---------
------------------|--------------------------|-----------------------|---------
------------5-----|--------------------------|-----------------------|---------
------------5--8--|--7--7--7--5--5--8--8--8--|--5--5--7--7--7--5--5--|--8----
x--x--x--x--3--8--|--7--7--7--5--5--8--8--8--|--5--5--7--7--7--5--5--|--8----
---------------6--|--5--5--5--3--3--6--6--6--|--3--3--5--5--5--3--3--|--6----
  

More info

Comments Bad Religion - Automatic Man - tab

kenworth

Kenworth 2012-01-14

ook hier weer de tekst


kenworth

Kenworth 2012-01-13

Sorry hoor Rick, maar wat is dit??

Je hebt er helemaal niets bij vermeld...