• Streaming gitaar liedjes spelen
  • Leer gitaar spelen & gitaarlessen
  • 80.000 leden
-----------------------------------------------------------------------------------------------------------------------------------------------
			                       Stand By Me - Ben E king
-----------------------------------------------------------------------------------------------------------------------------------------------
Tabbed by: Gitaarspeler13

intro)
e-----------------------------------------------------------------------------
B-----------------------------------------------------------------------------
G-----------------------------------------------------------------------------
D-----------------------------------------------------------------------------
A-5-5--0-4-5-5---0-4-5-5---5-4-2-2--0-2-2--2-0--------2-0-0--0-4-5-5---0-4-5-5
E----------------------------------------------3-3--3-------------------------
tap^     tap^      tap^      tap^   tap^     tap^     tap^     tap^      tap^


(main melody)
e-----------------------------------------------------------------------------
B-----------------------------------------------------------------------------
G-----------------------------------------------------------------------------
D-----------------------------------------------------------------------------(repeat)
A-0-4-5-5---0-4-5-5---5-4-2-2--0-2-2--2-0--------2-0-0--0-4-5-5---0-4-5-5-----
E-----------------------------------------3-3--3------------------------------


  CHORDS
     C       Am       F         G            C      Am      F      G
e|---8-------5--------1---------3------------0-------0------1------3-------------|
B|---8-------5--------1---------3------------1-------1------1------0-------------|
G|---9-------5--------2---------4----or------0-------2---
>> Registreer, speel & download <<
Meld nu aan en speel de rest van Ben E King - Stand By Me

>> Registreer, speel & download <<
---2------0-------------|
D|---10------7--------3---------5------------2-------2------3------0-------------|
A|---10------7--------3---------5------------3-------0------0------2-------------|
E|---8-------5--------1---------3------------0-------0------0------3-------------|
 

C                  
When the night has come
 Am
And the land is dark
          F           G                 C
And the moon is the only light we'll see
C                            Am
No I won't be afraid, no I won't be afraid
          F           G              C 
Just as long as you stand, stand by me

C                        C                      Am
And darlin', darlin', stand by me, oh now now stand by me
  F            G         C
Stand by me, stand by me

C                              
If the sky that we look upon
 Am
Should tumble and fall
             F               G             C
And the mountains should crumble to the sea

 C                               Am
I won't cry, I won't cry, no I won't shed a tear
          F            G               C
Just as long as you stand, stand by me

 C                                       Am
And darlin', darlin', stand by me, oh stand by me
   F            G                    C
Stand by me, stand by me, stand by me-e, yeah

 C                                     C                        Am
Whenever you're in trouble won't you stand by me, oh now now stand by me
     F            G                     C 
Oh stand by me, stand by me, stand by me

 C                                  Am
Darlin', darlin', stand by me-e, stand by me
      F           G                     C
Oh stand by me, stand by me, stand by me







thank you for look this song

More info

Comments Ben E King - Stand By Me - tab

infernal102

Infernal102 2009-08-21

You can also try a capo on the second fret and play the following cords

G G Em Em C D. Te strumming pattern is D DU UDU.

I think this is easier, hope it helps,

 

Greetz,

Infnernal102

 


Meer Ben E King songs

Ben E King - Stand By Me