• Streaming gitaar liedjes spelen
  • Leer gitaar spelen & gitaarlessen
  • 80.000 leden
Kid's Allright


INTRO: (one semi- and one fully distorted guitar)
======
    G                                  Dsus4/F#                (*)
e -|----------3---------------3------|---------3---------------3------
B -|----------3---------------3------|---------3---------------3------
G -|----------0---------------0------|---------2---------------2b3----
D -|---------------------------------|----------------------------h2--
A -|------2---------------2----------|-----0---------------0----------
E -|--3---------------3-3------------|-2---------------2-2------------
      1   &   2   &   3   &   4   &    1   &   2   &   3   &   4   &


     Em7 
e -|----------3---------------3------|----------3---------------3------|
B -|----------3---------------3------|----------3---------------3------|
G -|----------0---------------0------|----------0---------------0------|
D -|------2-------------2-2----------|------2-------------2-2----------|
A -|--2---2-----------2-2-2----------|--2---2-----------2-2-2----------|
E -|--0---------------0-0------------|--0---------------0-0------------|
      1   &   2   &   3   &   4   &    1   &   2   &   3   &   4   &

(*) During the first measures of the intro don't bend up.



VERSE: (with intro chords)
======
Guitar 2 plays:

    G                                  Dsus4/F#               
e -|---------------------------------|-----------------3--------------
B -|--3---5---3---5---3---5---3---5--|-3---5---3---5-------3----------
G -|---------------------------------|-------------------------2b3----
D -|---------------------------------|----------------------------h2--
A -|---------------------------------|--------------------------------
E -|---------------------------------|--------------------------------
      1   &   2   &   3   &   4   &    1   &   2   &   3   &   4   &

     Em7 
e -|----------3---------------3------|----------3---------------3------|
B -|----------3---------------3------|----------3---------------3------|
G -|----------0---------------0------|----------0---------------0------|
D -|------2-------------2-2----------|------2-------------2-2----------|
A -|--2---2-----------2-2-2----------|--2---2------
>> Registreer, speel & download <<
Meld nu aan en speel de rest van Bettie Serveert - Kid's Allright

>> Registreer, speel & download <<
-----2-2-2----------|
E -|--0---------------0-0------------|--0---------------0-0------------|
      1   &   2   &   3   &   4   &    1   &   2   &   3   &   4   &




CHORUS:
=======
      C   CM7 C   CM7 C   CM7 C   CM7  A Asus2 A Asus2 A Asus2 A Asus2
e -|--0---0---0---0---0---0---0---0--|-0---0---0---0---0---0---0---0--
B -|--1---0---1---0---1---0---1---0--|-1---0---1---0---1---0---1---0--
G -|--0---0---0---0---0---0---0---0--|-2---2---2---2---2---2---2---2--
D -|--2---2---2---2---2---2---2---2--|-2---2---2---2---2---2---2---2--
A -|--3---3---3---3---3---3---3---3--|-0---0---0---0---0---0---0---0--
E -|---------------------------------|--------------------------------
      1   &   2   &   3   &   4   &    1   &   2   &   3   &   4   &

     Em7 
e -|----------3---------------3------|----------3---------------3------|
B -|----------3---------------3------|----------3---------------3------|
G -|----------0---------------0------|----------0---------------0------|
D -|------2-------------2-2----------|------2-------------2-2----------|
A -|--2---2-----------2-2-2----------|--2---2-----------2-2-2----------|
E -|--0---------------0-0------------|--0---------------0-0------------|
      1   &   2   &   3   &   4   &    1   &   2   &   3   &   4   &


BRIDGE:
=======
(Sorry time's up...will follow soon)


LYRICS: (from: Mike (MXK164@psuvm.psu.edu and kwg105@psuvm.psu.edu))
=======
--- Kid's Allright ---

Down in the cellar, with Dolly and Sue
Smoking fags and feeling cool
Talking to the guy who lives downstairs
and walking around in ridiculous flares
Back in the bushes we find a cat
and beat 'm up with a baseballbat
And Grandma said we'll grow up bad
'n go straight to hell, just like dad

But dont you get your hopes up high
the kid's allright

Down in the cellar with Dolly and Sue
falling in love and feeling blue
flirting with the guy who lives downstairs
and walking around in ridiculous flares
Playing hookey, pretend we're sick
Mamma dont care if it's just a trick
'cause she just wishes she never had
Those kids from hell who drive her mad

But dont you get your hopes up high
the kid's allright
now dont you think the kid's allright

More info