• Streaming gitaar liedjes spelen
  • Leer gitaar spelen & gitaarlessen
  • 75.000 leden
Nog 10 tab te gaan voor deze maand.
E | ------------------------------------------------------------------------------------------------------------------------
B |-----------------------------0-----1-------------0-------------0------1-----0--------------------------------------
G |--------
De rest van dit nummer alleen voor Gitaartabs leden! Maak gratis Gitaartabs account aan . 
Gitaar Tabs

Download, print en speel de Tab ♪ Bill Van Dijk - Wilhelmus (1ste Regel)

Meld je aan en print, download of speel binnen 15 sec mee Tab ♫ Bill Van Dijk - Wilhelmus (1ste Regel).
Reeds 70.000 gitaristen zijn je voorgegaan.

Gratis Aanmelden Gitaartabs

Wat vind jij van deze song? Bill Van Dijk - Wilhelmus (1ste Regel)

Comments Bill Van Dijk - Wilhelmus (1ste Regel) - tab

patrickbcd12

Patrickbcd12 2007-11-20

hum..
als beginneling(heb nu 8 dage neen gitaar) is het redelijk moeilijk om te spelen maar als je een beetje door oefent dan meot et lukken Knipoog


rick

Rick 2007-09-15

zo he nu heb ik pijn in mijn vinger Tong Grijns Knipoog Lachebek


roderik

Roderik 2007-07-13

E|-----------------------------------------------
B|-------------0--1-----0-----0--1--0------------
G|----0--0--2--------2-----2-----------2--0--2--0
D|-0---------------------------------------------
A|-----------------------------------------------
E|----------------------------------------------- 2x

E|----------0------------------------------------------------------------------------------
B|-0--1--3-----3--1--0-----0--1--0--------------------------0------------------------------
G|----------------------2-----------2--0--2-----0-----0--2-----2--0--------------0--0-----0
D|-------------------------------------------0-----4-----------------4--0--2--4--------4---
A|-----------------------------------------------------------------------------------------
E|-----------------------------------------------------------------------------------------

dit is hem volgens mij


Plaats opmerkingen e.o. suggestie voor Bill Van Dijk - Wilhelmus (1ste Regel)

Meer Bill Van Dijk songs

Bill Van Dijk - Wilhelmus (1ste Regel)