• Streaming gitaar liedjes spelen
  • Leer gitaar spelen & gitaarlessen
  • 75.000 leden
Intro
e|-------------------------------------------|
B|-------------------------------------------|
G|-4/7--7/9-9---12\-12\-12\-12\7---7/9-9-----|
D|-4/7--7/9-9---12\-12\-12\-12\7---7/9-9-----|
A|-2/5--5/7-7---10\-10\-10\-10\5---5/7-7-----|
E|-------------------------------------------|


e|---------------------------------|
B|---------------------------------|
G|---------------------------------|
D|----------5h4-5h4 5h4------------|
A|-2-5-5h7-7-------------5/7-7\----|
E|---------------------------------|

1
e|---------------------------------|
B|---------------------------------|
G|---------------------------------|
D|---------------------------------|
A|-----5-----------------
De rest van dit nummer alleen voor Gitaartabs leden! Maak gratis Gitaartabs account aan . 
Gitaar Tabs

Download, print en speel de Tab ♪ Black Sabbath - Iron Man

Meld je aan en print, download of speel binnen 15 sec mee Tab ♫ Black Sabbath - Iron Man.
Reeds 70.000 gitaristen zijn je voorgegaan.

Gratis Aanmelden Gitaartabs

Artiesten

Black Sabbath

Song information

Naam: Iron Man
Album:
Notatie: Tab (TAB)
Category: Pop
Niveau: 2/10

Statistiek

Downloads: 5.527
Commentaren: 1 Comment

Credits

Geplaat door: Sinn
Geschreven door: Sinn
Datum: 2008-02-03

Comments Black Sabbath - Iron Man - tab

Theo storm

Theo storm 2008-10-15

Hey ik heb een vraag.
Wat moet je doen met 12\ ??
5/7 enz snap ik wel.. maar bij 12\ staat er geen ander getal achter.
alvast bedankt