• Streaming gitaar liedjes spelen
  • Leer gitaar spelen & gitaarlessen
  • 80.000 leden
AKKOORDEN:
G5    320033     D     XX0232
Dsus2 XX0230     Em7   X22033
Cadd9 X32033


 1 INTRO)
 E-----3-3--------3-3---------------3-3-
 B-----3-3--------3-3-----3-3-------3-3-
 G-----0-0--------0-0-----2-2-------0-0-
 D-----0-0--------0-0-----0-0-------2-2-
 A-----2-2--------X-X-----------0-2-3-3-
 E--3--3-3---3-2--2-2---2---------------
 Na het opkomen van de drums, bas en keyboard gewoon de akkoorden pakken.


 2 COUPLET)
 / G /                               / Cadd9 /
 "Ik heb altijd geweten...dat zonder eten niemand..." enz.


 3 REFREIN a)
 E------------------------------------------------
 B--------3-3-----------------------------3-3p2---
 G--------2-2-----------------------------------2-
 D--------0-0-------------------------------------
 A--3--2------------------------------------------
 E------------------------------------------------
              "Maar als het er opaan komt ..." enz.

 3 REFREIN b)
 E----------------------3-
 B----------------------3-
 G----------------------0-
 D----------------------2-
 A----------------------3-
 E------------------------
 "Als er gevochten wordt ..." enz.

 Refrein vervolgen met intro


 4 BRUG a)
 / D /                      / Cadd9 /
 "Weet dat ieder geuzenlied een zwanenzang kan..." enz.

 4 BRUG b)
            / Em7 /                           / Cadd9 /
 "...en het hart van elke ze
euw klopt in geen keel maar in de grond."




TEKST:

Ik heb altijd geweten dat zonder
eten niemand ooit echt goed kan zijn.
Ik heb altijd vermoed dat wie zijn dingen doet
een oorlog voert maar in het klein.

Als het er op aan komt.
Als er gevochten wordt
op het scherpst van het mes.
Dan denk ik:

Lang lag ik onder maar zonder de wanhoop
van het wachten in nachten die eindeloos duren.
'k Heb geloof in mijn hoofd en mijn handen.

Straks kom ik boven.
Straks kom ik boven.

Ik heb altijd gedacht dat de krachten
die me drijven de mijne moeten zijn.
En ik heb altijd gezegd dat als je vecht
je niet meer bang moet zijn voor bloed en pijn.

Als het er op aan komt.
Als er gevochten wordt
op het scherpst van het mes.
Dan denk ik:

Lang lag ik onder maar zonder de wanhoop
van het wachten in nachten die eindeloos duren.
'k Heb geloof in mijn hoofd en mijn handen.

Straks kom ik boven.
Straks kom ik boven.

Weet dat ieder geuzenlied een zwanenzang kan worden.
Als wildgemaakte horden je schoppen als een hond.
Maar het land dwingt nooit de vogel.
En de zee dwingt nooit de leeuw.
En het hart van elke Zeeuw klopt in geen keel maar in de grond...

Straks kom ik boven.
Straks kom ik boven.
'k Heb geloof in mijn hoofd en mijn handen.
Straks kom ik boven.
Ik worstel en kom boven.
'k Heb geloof in mijn hoofd en mijn handen.
Straks kom ik boven.



More info