• Streaming gitaar liedjes spelen
  • Leer gitaar spelen & gitaarlessen
  • 75.000 leden
Nog 10 tab te gaan voor deze maand.
AKKOORDEN:
G5      320033
Dsus2   XX0230
Cadd9   X32033
Am7add4 X02233
E*      XX0450


 1 INTRO)
 E-|-----5-------------5-----------5-----5-----|--
 B-|-2H3---3-2---0-2H3---3~~---2H3---3-3---3~~-|--
 G-|-------------------------------------------|--
 D-|-------------------------------------------|--
 A-|-------------------------------------------|--
 E-|-------------------------------------------|--
                      2X


 2 COUPLET)
         H  H
      E-----12---
      B--12------ / Cadd9 /     / G5 /   / Dsus2 /
 "Je buien maken vlekken op mijn hagelwit humeur."

            / Am7add4 /  / Cadd9 /        / G5 /        / Dsus2 /  / E* /  / Dsus2 /
 "Ik heb m'n handen op je heupen, maar m'n hoofd is bij de deur."

     / Am7add4 /   / Cadd9 /  / G5 /     / Dsus2 /
 "Ze zeggen dat het went. Ik heb het geprobeerd."

     / Am7add4 /      / Cadd9 /         / G5 /  
 "Maar hoe ik het ook wend of keer. M'n huis beschremt niet meer."


 3 REFREIN)
 E-----------------------------5-----5-------5---5--------5--5------
 B-------------------------2H3---3-3-----2H3---3------2H3--3---3~~--
 G------------------------------------------------------------------
 D------------------------------------------------------------------
 A------------------------------------------------------------------
 E------------------------------------------------------------------
 "Het regent harder dan ik hebben kan.   Harder dan ik drinken kan." 

 E-----------------------------5-----5-------5---5--------5--5---------
 B-------------------------2H3---3-3-----2H3---3------2H3--3---3-3~~---
 G----
De rest van dit nummer alleen voor Gitaartabs leden! Maak gratis Gitaartabs account aan . 
Gitaar Tabs

Download, print en speel de Tab ♪ Blof - Harder Dan Ik Hebben Kan

Meld je aan en print, download of speel binnen 15 sec mee Tab ♫ Blof - Harder Dan Ik Hebben Kan.
Reeds 70.000 gitaristen zijn je voorgegaan.

Gratis Aanmelden Gitaartabs

Wat vind jij van deze song? Blof - Harder Dan Ik Hebben Kan

Comments Blof - Harder Dan Ik Hebben Kan - tab

Plaats opmerkingen e.o. suggestie voor Blof - Harder Dan Ik Hebben Kan