• Streaming gitaar liedjes spelen
  • Leer gitaar spelen & gitaarlessen
  • 75.000 leden
AKKOORDEN:
G5    320033     D     XX0232
Dsus2 XX0230     Em7   X22033
Cadd9 X32033


 1 INTRO & COUPLET a)
 E-------------7----------------0-------------0-------------0---------------
 B----4---5-----------------------0-------------0-------------0-------------
 G---4------------------------2-----2-------2-----2-------2-----------------
 D--4-----------------------2-------------2-------------2-------------------
 A--------------------------------------0-------------0---------------------
 E------------------------2-------------------------------------------------
 "Ik doe mijn best        om wakker te blijven. Maar mijn ogen vallen dicht."
 enz.


 2 COUPLET b)
 E-------------0--------------------5------------------0--------------------
 B-----------0---0--------------2-3----------------------0------------------
 G---------2-------2-----------2-----------2---------2-----2----------------
 D-------3--------------------2----------2---------2------------------------
 A-------------------------------------0---------0--------------------------
 E--------------------------------------------------------------------------
 "Er zit veel te veel te hoog
De rest van dit nummer alleen voor Gitaartabs leden! Maak gratis Gitaartabs account aan . 
Gitaar Tabs

Download, print en speel de Tab ♪ Blof - Het Is Laat

Meld je aan en print, download of speel binnen 15 sec mee Tab ♫ Blof - Het Is Laat.
Reeds 70.000 gitaristen zijn je voorgegaan.

Gratis Aanmelden Gitaartabs