• Streaming gitaar liedjes spelen
  • Leer gitaar spelen & gitaarlessen
  • 80.000 leden
KKOORDEN:
Em       X79987     Gm    355333     G5  320033     Cadd9 X32033 
Dsus2    X57755     F#5   244222     C   032010
Dsus2/C# X47755     Csus2 X35533     F7M 003210


 1 INTRO)
              4x
 E-|---0--0--0---0--0--0-0-0--|--
 B-|-2/5--7--8---5--3--2H3-2--|--
 G-|--------------------------|--
 D-|--------------------------|--
 A-|--------------------------|--
 E-|--------------------------|--

 
 2 COUPLET)
  Em              Dsus2    Dsus2/C#       Em
 "Daar zat ik dan. Geen idee en ook geen plan."

                  Dsus2    Dsus2/C#
 "Midden in mijn huis.

  Em              Dsus2    Dsus2/C#        Em
 "Midden in de nacht. Op de grond met mijn gitaar."

                  Dsus2    Dsus2/C#
 "Ik zat op wacht."

  Gm                       F#5
 "Voor het lied dat jij nu hoort."

                    Csus2
 
"Dat toen nog niet bestond."

 "Ik speelde elke noot. Bedacht het woord voor woord."


 3 REFREIN)
  G5                         C
 "Maar er is nog steeds iets mis."

                          F7M
 "En ik weet niet wat het is."

                            Cadd9
 "Maar het zal wel iets van suiker zijn."

  G5                      C
 "Iets dat eigenlijk niet past."

                    F7M
 "In een liedje van vandaag."

                            Cadd9
 "Maar het zal wel iets van suiker zijn."


 4 BRUG)
 E------------0------------------0-------0------
 B--6~~----6--5------3/6~~----6--5----6--5-5/8--
 G----------------------------------------------
 D----------------------------------------------
 A----------------------------------------------
 E----------------------------------------------




TEKST:
...


More info