• Streaming gitaar liedjes spelen
  • Leer gitaar spelen & gitaarlessen
  • 80.000 leden
AKKOORDEN:
D5 XX0235

 1 INTRO & COUPLET)
         3x
 E--|----------|-----------
 B--|----------|--2H3/5~~--
 G--|----------|-----------
 D--|----------|-----------
 A--|---5----5-|-----------
 E--|-2----3---|-----------

 2 REFREIN)
           3x
 E--|--------------------|-------------------------------
 B--|--2--3--5--3~--2~~--|--3~~--------------------------
 G--|--------------------|-------------------------------
 D--|--------------------|-------------------------------
 A--|--------------------|-------------------------------
 E--|--------------------|-------------------------------
                               "Twee koude handen!!!..."
           3x
 E--|--------------------|-------------------------------
 B--|--2--3--5--3~--2~~--|--3~~--------------------------
 G--|--------------------|-------------------------------
 D--|--------------------|-------------------------------
 A--|--------------------|-------------------------------
 E--|--------------------|-------------------------------

 / D5 /
 "twee koude handen op mijn lijf"
 / D5 /
 "niet eens van jou, ze zijn van mij"
 / D5 /
 "twee koude handen op mijn lijf"
 / D5 /
 "ik voel ze branden"
  Bij de D5 je wijsvinger barree leggen, zodat je af en toe je middelvinger kan optillen.
  Zodat er XX0225 wordt gespeeld.

 3 BRUG)
                  3x
 E--|-----------------------------|-------------------------------
>> Registreer, speel & download <<
Meld nu aan en speel de rest van Blof - Twee Koude Handen

>> Registreer, speel & download <<
 B--|-----------------------------|-------------------------------
 G--|-----------------------------|-------------------------------
 D--|-11H12~12~12~12~12~12~12~12~-|--11H12/14~14~14~14~14~14~14~--
 A--|-----------------------------|-------------------------------
 E--|-----------------------------|-------------------------------
                  3x
 E--|-----------------------------|-------------------------------
 B--|-----------------------------|-------------------------------
 G--|-----------------------------|-------------------------------
 D--|-11H12~12~12~12~12~12~12~12~-|--11H12/14~14~14~14~14~14~14~--
 A--|-----------------------------|-------------------------------
 E--|-----------------------------|-------------------------------




TEKST:
elke trage dag
een heilig medicijn
ik ben niet ziek
ik voel alleen een beetje pijn
maar elke zwarte nacht
een beker vol venijn
ik ben niet ziek
maar ik had beter kunnen zijn
	twee koude handen
	twee koude handen op mijn lijf
	niet eens van jou, ze zijn van mij
	twee koude handen op mijn lijf
	ik voel ze branden
elke trage dag
een pil tegen de pijn
ik ben niet ziek
en ik wil het ook niet zijn
maar elke zwarte nacht
een giftig medicijn
ik ben niet ziek
maar ik had beter moeten zijn
	twee koude handen
	twee koude handen op mijn lijf
	niet eens van jou, ze zijn van mij
	twee koude handen op mijn lijf
	ik voel ze branden



More info