• Streaming gitaar liedjes spelen
  • Leer gitaar spelen & gitaarlessen
  • 75.000 leden
Boudewijn de Groot – Avond SOLO
-----------------------------------------------------------------
Tabbed by: Bob Kaljee
Email:
Tuning: standard E-A-D-G-B-E

E|-----------------2/5-3-----------------------------------------|
B|-----------5h6p5-------5/6-------------------5-6-5-------------|
G|-----4-5-7-----------------5-5-5-7-0-----5-7-------7-4-5-7-----|
D|---7-----------------------------------7-----------------------|
A|-7-----------------------------------7-------------------------|
E|---------------------------------------------------------------|

E|---------------------------------------------------------------|
B|---6--6--5----3-/-5----
De rest van dit nummer alleen voor Gitaartabs leden! Maak gratis Gitaartabs account aan . 
Gitaar Tabs

Download, print en speel de Tab ♪ Boudewijn De Groot - Avond (solo)

Meld je aan en print, download of speel binnen 15 sec mee Tab ♫ Boudewijn De Groot - Avond (solo).
Reeds 70.000 gitaristen zijn je voorgegaan.

Gratis Aanmelden Gitaartabs