• Streaming gitaar liedjes spelen
  • Leer gitaar spelen & gitaarlessen
  • 80.000 leden
Boudewijn de Groot – Avond SOLO
-----------------------------------------------------------------
Tabbed by: Bob Kaljee
Email:
Tuning: standard E-A-D-G-B-E

E|-----------------2/5-3-----------------------------------------|
B|-----------5h6p5-------5/6-------------------5-6-5-------------|
G|-----4-5-7-----------------5-5-5-7-0-----5-7-------7-4-5-7-----|
D|---7-----------------------------------7-----------------------|
A|-7-----------------------------------7-------------------------|
E|---------------------------------------------------------------|

E|---------------------------------------------------------------|
B|---6--6--5----3-/-5--------------------------------------------|
G|-5--5--5------------7-5-4--2-4-h-5-\-1---4-5-/-7-7-7-5-5-4-4---|
D|---------------------------------------------------------------|
A|---------------------------------------------------------------|
E|---------------------------------------------------------------|

E|--------------
----------5--5--2--2--0--------------------------|
B|----6-------------------6--6--3--3--0----------5-6-6-6-6-8---5-|
G|------7-7-7-5-7-p-5-4---7--7--4--4--1--4-5-7-7-------------7---|
D|------------------------7--7--4--4--2--------------------------|
A|-7----------------------x--x--x--x--2--------------------------|
E|------------------------x--x--x--x--0--------------------------|

E|-------7-8-10-13-15-p-13-12------------------------------------|
B|---10----------------------------------------------------------|
G|-9-------------------------------------------------------------|
D|---------------------------------------------------------------|
A|---------------------------------------------------------------|
E|---------------------------------------------------------------|

Tablature Notation

h - hammer on 
p - pull off 
b - bend string up
r - release bend
/ - slide up
\ - slide down
v - vibrato (or ~)
t - right hand tap
x - play 'note' with heavy muting

More info