• Streaming gitaar liedjes spelen
  • Leer gitaar spelen & gitaarlessen
  • 80.000 leden
Beneden alle peil


  C
e:--------3------|--------3------|--------3------|--------3------|
B:----1-------1--|----1-------1--|----1-------1--|----1-------1--|
G:--0---0---0---0|--0---0---0---0|--0---0---0---0|--0---0---0---0|
D:---------------|---------------|---------------|---------------|
A:3-------3------|3-------3------|3-------3------|3-------3------|
E:---------------|---------------|---------------|---------------|

 /C                                               G
e:--------3------|--------3------|--------3------|--------3------|
B:----1-------1--|----1-------1--|----1-------1--|----0-------0--|
G:--0---0---0---0|--0---0---0---0|--0---0---0---0|--0---0---0---0|
D:---------------|---------------|---------------|---------------|
A:3-------3------|3-------3------|3-------3------|---------------|
E:---------------|---------------|---------------|3-------3------|
 \
  Jouw armen liefste...
  Mijn liefde was de inzet...

  Em                                      G       C
e:--------0------|--------0------|---------------|--------3------|
B:----0-------0--|----0-------0--|----0-------0--|----1-------0--|
G:--0---0---0---0|--0---0---0---0|--0---0---0---0|--0---0---0---0|
D:---------------|---------------|---------------|---------------|
A:---------------|---------------|---------------|3-------3------|
E:0-------0------|0-------0------|0-------3------|---------------|

  F       G       C
e:---------------|--------3------|--------3------|--------3------|
B:----1-------0--|----1-------1--|----1-------1--|----1-------1--|
G:--2---2---0---0|--0---0---0---0|--0---0---0---0|--0---0---0---0|
D:---------------|---------------|---------------|---------------|
A:---------------|3-------3------|3-------3------|3-------3------|
E:1-------3------|---------------|---------------|---------------|

  C               G               F       G       C
e:--------3------|--------3------|---------------|--------3------|
B:----1-------1--|----0-------0--|----1-------0--|----1-------1--|
G:--0---0---0---0|--0---0---0---0|--2---2---0---0|--0---0---0---0|
D:---------------|---------------|---------------|---------------|
A:3-------3------|---------------|---------------|3-------3------|
E:---------------|3-------3------|1-------3------|---------------|

  C               Am                              Em
e:--------3------|--------0------|--------0------|--------0------|
B:----1-------1--|----1-------1--|----1-------1--|----0-------0--|
G:--0---0---0---0|--2---2---2---2|--2---2---2---2|--0---0---0---0|
D:---------------|---------------|---------------|---------------|
A:3-------3------|0-------0------|0-------0------|---------------|
E:---------------|---------------|---------------|0-------0------|
                  Bekijk jezelf....

  Am              Dm      G       C               F       G
e:--------0------|---------------|--------3------|---------------|
B:----1-------1--|----3-------0--|----1-------1--|----1-------0--|
G:--2---2---2---2|--2---2---0---0|--0---0---0---0|--2---2---0---0|
D:---------------|0--------------|---------------|---------------|
A:0-------0------|---------------|3-------3------|---------------|
E:---------------|--------3------|---------------|1-------3------|


                                 |--- 1e keer --------------------
  Am                                              F       G
e:--------0------|---------------|--------0------|---------------|
B:----1----------|3---1---0h1----|----1-------1--|----1-------0--|
G:--2---2--------|---------------|--2---2---2---2|--2---2---0---0|
D:---------------|---------------|---------------|---------------|
A:0-------0------|---------------|0-------0------|---------------|
E:---------------|---------------|---------------|1-------3------|

  C
e:--------3------|--------3------|--------3------|--------3------|
B:----1-------1--|----1-------1--|----1-------1--|----1-------1--|
G:--0---0---0---0|--0---0---0---0|--0---0---0---0|--0---0---0---0|
D:---------------|---------------|---------------|---------------|
A:3-------3------|3-------3------|3-------3------|3-------3------|
E:---------------|---------------|---------------|---------------|

  G               F       G       C                  -> intermezzo
e:--------0------|---------------|--------3------|--------3------|
B:----0-------0--|----1-------0--|----1-------1--|----1-------1--|
G:--0---0---0---0|--2---2---0---0|--0---0---0---0|--0---0---0---0|
D:---------------|---------------|---------------|---------------|
A:--------------
-|---------------|3-------3------|3-------3------|
E:3-------0------|1-------3------|---------------|---------------|


 |---- 2e keer --------------------------------------------------|
  Am      G       C
e:---------------|--------3------|--------3------|--------3------|
B:----1-------0--|----1-------1--|----1-------1--|----1-------1--|
G:--2---2---0---0|--0---0---0---0|--0---0---0---0|--0---0---0---0|
D:---------------|---------------|---------------|---------------|
A:0--------------|3-------3------|3-------3------|3-------3------|
E:--------3------|---------------|---------------|---------------|

  C                               G               F       G
e:--------3------|--------3------|--------3------|---------------|
B:----1-------1--|----1-------1--|----0-------0--|----1-------0--|
G:--0---0---0---0|--0---0---0---0|--0---0---0---0|--2---2---0---0|
D:---------------|---------------|---------------|---------------|
A:3-------3------|3-------3------|---------------|---------------|
E:---------------|---------------|3-------3------|1-------3------|

  C
e:--------3------|--------3------|----3-1-0------|--------0------|
B:----1-------1--|----1-------1--|------------3--|----1-3-1------|
G:--0---0---0---0|--0---0---0---0|--0-------0---0|--0-----0------|
D:---------------|---------------|---------------|--------0------|
A:3-------3------|3-------3------|3--------------|3-------3------|
E:---------------|---------------|---------------|---------------|


Intermezzo:

                                                  G
e:----3-1-0------|--------0------|----3-1-0------|--------3------|
B:------------3--|1---1-------1--|------------1--|----0-------0--|
G:--0-------0---0|--0---0---0---0|--0-------0---0|--0---0---0---0|
D:---------------|---------------|---------------|---------------|
A:3--------------|---------------|3--------------|---------------|
E:---------------|---------------|---------------|3-------3------|

  Em                                      G       C
e:--0------------|--------0------|----0----------|--------0------|
B:------3---1---0|0---0-------0--|------------3--|----1-----3-1--|
G:----0---0---0--|--0---0---0---0|--0---0---0---0|--0---0-------0|
D:---------------|---------------|---------------|---------------|
A:---------------|---------------|---------------|3-------3------|
E:0--------------|0-------0------|0-------3------|---------------|

  F       G       C
e:----1----------|--------3------|--------3------|---------------|
B:1-----------3--|----1-------1--|----1-------1--|---------------|
G:--2---2---0---0|--0---0---0---0|--0---0---0---0|---------------|
D:---------------|---------------|---------------|---------------|
A:---------------|3-------3------|3-------3------|---------------|
E:1-------3------|---------------|---------------|---------------|
Structuur:
Het begint met 4 maten intro, vervolgens een couplet, een intermezzo, weer een couplet en vervolgens het einde. Ik heb couplet-gedeelte een keer geschreven. Volg de eerste keer het gedeelte dat begint onder 1. en speel door tot 2. Van daaruit naar intermezzo en weer terug naar het begin van het couplet. De tweede keer het gedeelte onder 1. overslaan en verder spelen vanaf 2. 




Beneden alle peil
Jouw armen liefste, zijn niet om te slaan,
je moet je handen niet tot vuisten maken.
Je ogen hoeven niet zo hard te staan,
ontspan die harde lijnen om je kaken.
Je lichaam lief is zacht om aan te raken.
Maar jij denkt enkel aan je eigen heil,
jij denkt alleen maar aan je eigen zaken
en dat is toch beneden alle peil.

Bekijk jezelf en lach, je zachte arm
is voor mijn hoofd gemaakt om op te rusten,
je borst als veilig kussen houdt me warm,
maar warmer zijn je lippen die me kusten.
Zo wekte je een voor een mijn andere lusten.
Maar jij dacht aan een ander onderwijl
waarmee je zonder moeite je geweten suste
en dat is toch beneden alle peil.

Mijn liefde was de inzet voor jouw spel,
door mij liet jij je ijdelheid graag strelen.
Je wilde niet, dan wilde je weer wel.
Ik was verblind, ik liet maar met me spelen.
Je liet je zo maar door een ander stelen
en mijn geluk ging zo maar voor de bijl.
Maar mijn verdriet kon jou niet zoveel schelen
en dat was toch beneden alle peil.

Prinsheerlijk lig je in een anders bed
en maakt hem met je lichaam dwaas en dronken,
wat in geen enkel opzicht jou belet
achter zijn rug om weer naar mij te lonken.
Bedriegen ligt nu eenmaal in jouw stijl,
je hebt je in het geheim aan mij geschonken,
maar het is toch wel beneden alle peil.

More info

Comments Boudewijn De Groot - Beneden Alle Peil - tab

FOTF_Mark

FOTF_Mark 2008-08-20

Hoe kun je een noot spelen op de 1e fret als er staat dat je de Capo op 2 moet zetten? Verbaasd Verbaasd


koning

Koning 2008-08-20

Ja, dat is ook moeilijk!! Grijns

Dus dat wordt even puzzelen Tong