• Streaming gitaar liedjes spelen
  • Leer gitaar spelen & gitaarlessen
  • 75.000 leden
Beneden alle peil


  C
e:--------3------|--------3------|--------3------|--------3------|
B:----1-------1--|----1-------1--|----1-------1--|----1-------1--|
G:--0---0---0---0|--0---0---0---0|--0---0---0---0|--0---0---0---0|
D:---------------|---------------|---------------|---------------|
A:3-------3------|3-------3------|3-------3------|3-------3------|
E:---------------|---------------|---------------|---------------|

 /C                                               G
e:--------3------|--------3------|--------3------|--------3------|
B:----1-------1--|----1-------1--|----1-------1--|----0-------0--|
G:--0---0---0---0|--0---0---0---0|--0---0---0---0|--0---0---0---0|
D:---------------|---------------|---------------|---------------|
A:3-------3------|3-------3------|3-------3------|---------------|
E:---------------|---------------|---------------|3-------3------|
 \
  Jouw armen liefste...
  Mijn liefde was de inzet...

  Em                                      G       C
e:--------0------|--------0------|---------------|--------3------|
B:----0-------0--|----0-------0--|----0-------0--|----1-------0--|
G:--0---0---0---0|--0---0---0---0|--0---0---0---0|--0---0---0---0|
D:---------------|---------------|---------------|---------------|
A:---------------|---------------|---------------|3-------3------|
E:0-------0------|0-------0------|0-------3------|---------------|

  F       G       C
e:---------------|--------3------|--------3------|--------3------|
B:----1-------0--|----1-------1--|----1-------1--|----1-------1--|
G:--2---2---0---0|--0---0---0---0|--0---0---0---0|--0---0---0---0|
D:---------------|---------------|---------------|---------------|
A:---------------|3-------3------|3-------3------|3-------3------|
E:1-------3------|---------------|---------------|---------------|

  C               G               F       G       C
e:--------3------|--------3------|---------------|--------3------|
B:----1-------1--|----0-------0--|----1-------0--|----1-------1--|
G:--0---0---0---0|--0---0---0---0|--2---2---0---0|--0---0---0---0|
D:---------------|---------------|---------------|---------------|
A:3-------3------|---------------|---------------|3-------3------|
E:---------------|3-------3------|1-------3------|---------------|

  C               Am                              Em
e:--------3------|--------0------|--------0------|--------0------|
B:----1-------1--|----1-------1--|----1-------1--|----0-------0--|
G:--0---0---0---0|--2---2---2---2|--2---2---2---2|--0---0---0---0|
D:---------------|---------------|---------------|---------------|
A:3-------3------|0-------0------|0-------0------|---------------|
E:---------------|---------------|---------------|0-------0------|
                  Bekijk jezelf....

  Am              Dm      G       C               F       G
e:--------0------|---------------|--------3------|---------------|
B:----1-------1--|----3-------0--|----1-------1--|----1-------0--|
G:--2---2---2---2|--2---2---0---0|--0---0---0---0|--
De rest van dit nummer alleen voor Gitaartabs leden! Maak gratis Gitaartabs account aan . 
Gitaar Tabs

Download, print en speel de Tab ♪ Boudewijn De Groot - Beneden Alle Peil

Meld je aan en print, download of speel binnen 15 sec mee Tab ♫ Boudewijn De Groot - Beneden Alle Peil.
Reeds 70.000 gitaristen zijn je voorgegaan.

Gratis Aanmelden Gitaartabs

Comments Boudewijn De Groot - Beneden Alle Peil - tab

FOTF_Mark

FOTF_Mark 2008-08-20

Hoe kun je een noot spelen op de 1e fret als er staat dat je de Capo op 2 moet zetten? Verbaasd Verbaasd


koning

Koning 2008-08-20

Ja, dat is ook moeilijk!! Grijns

Dus dat wordt even puzzelen Tong