• Streaming gitaar liedjes spelen
  • Leer gitaar spelen & gitaarlessen
  • 80.000 leden
De zwemmer

  G     GMaj7     G6    G         GMaj7 G6    G   D
e:3-----2-------2|0-------------0|2-----0--------|------2--------|
B:----0-------0--|----0-3-----3--|----0-----0-3--|----3---3------|
G:--0-------0----|--0-------0----|--0-----0-----0|--2-------2---2|
D:---------------|---------------|---------------|0-----------0--|
A:---------------|---------------|---------------|---------------|
E:3-----3--------|3-----3--------|3-----3-----3--|---------------|


  D+5             D                               G
e:5-----3-------3|2-----0-------0|2-----0--------|--------3------|
B:----3-------3--|----3-------3--|----3-----3---3|------0---0---0|
G:--2-------2----|--2-------2----|--2-----2---2--|----0-------0--|
D:0-----0--------|0-----0--------|0-----0--------|--0------------|
A:---------------|---------------|---------------|---------------|
E:---------------|---------------|---------------|3--------------|
                                                ^twijfel!

Volgorde:

- 2x als intro, maar het laatste G-akkoord de 2e keer 2x direct achter elkaar
  spelen.
- dan 2x voor 1 couplet
- dan 1x intermezzo
- dan 3x voor 1 couplet
- dan 1x als intermezzo
- dan 1x als intermezzo met "basbegeleiding", maar let op! Laatste G-akkoord 2x
- dan 1x zonder G-akkoord op het eind
- dan eindstuk:

  G     GMaj7     G6    G         GMaj7 G6    G   D
e:3-----2-------2|0-------------0|2-----0--------|------2--------|
B:----0-------0--|----0-3-----3--|----0-----0-3--|----3---3------|
G:--0-------0----|--0-------0----|--0-----0-----0|--2-------2---2|
D:---------------|---------------|---------------|0-----------0--|
A:---------------|---------------|---------------|---------------|
E:3-----3--------|3-----3--------|3-----3-----3--|---------------|


  D+5             D                               G
e:5-----3-------3|2-----0-------0|2-----0--------|---------------|
B:----3-------3--|----3-------3--|----3-----3---3|------0-1-0-3-1|
G:--2-------2----|--2-------2----|--2-----2---2--|----0------
----|
D:0-----0--------|0-----0--------|0-----0--------|--0------------|
A:---------------|---------------|---------------|---------------|
E:---------------|---------------|---------------|3--------------|

  G
e:3--------------|---------------|---------------|---------------|
B:0--------------|---------------|---------------|---------------|
G:0--------------|---------------|---------------|---------------|
D:0--------------|---------------|---------------|---------------|
A:2--------------|---------------|---------------|---------------|
E:3--------------|---------------|---------------|---------------|

Bonus: het "basloopje" bij het derde intermezzo.
Het is me nog niet gelukt om dit in het stuk te passen.

e:---------------|---------------|---------------|---------------|
B:---------------|---------------|---------------|---------------|
G:---------------|---------------|---------------|---------------|
D:---------------|0--------------|--------------0|---------------|
A:0-----4--------|-------3-------|2------0-------|---------------|
E:---------------|---------------|---------------|3--------------|


De zwemmer
Een zwemmer zwemt, hij zwemt in zee.
Hij zwemt weg van het strand
maar neemt bepaalde beelden met zich mee
van wat hij achterliet op het land.

Hij zwemt en denkt niet aan later,
hij heeft geen last van angst of aarzeling.
Boven hem lucht, onder hem water,
een zwemmer is een enkeling.

Hij baant zich een weg door het water,
hij is al flink op weg naar Engeland.
Achter zich hoort hij geschater,
iemand die achterbleef op het strand.

Wat meegaat, dat laat hij ook achter,
wat in de war van een herinnering
kijkt hij eens om en zwemt wat zachter,
verdriet is een vertragend ding.

De kust is een vage belofte,
het koude water de verzekering
dat hij alles waarin hij geloofde
niet zonder reden door iets nieuws verving.

Een zwemmer zwemt, hij zwemt in zee.
Hij zwemt weg van het strand
maar neemt bepaalde beelden met zich mee
van wat hij achterliet op het land. 

More info