• Streaming gitaar liedjes spelen
  • Leer gitaar spelen & gitaarlessen
  • 75.000 leden
AKKOORDEN:
------------

   (EADGBe)
E = 022100
B = x24442


MAAT: 4/4
=====================================================

[KEYBOARD: RIFF1]
e||--------2----0--2--4--0--2--|-------2----0--2--4--0--2--|
B||--------0----0--0--0--0--0--|-------0----0--0--0--0--0--|
G||----------------------------|---------------------------|
D||----------------------------|---------------------------|
A||--2-------------------------|--2------------------------|
E||----------------------------|---------------------------|


E|--------2----0--2--4--0--2--|-------2----0--2--4--0--2----2--2--||
H|--------0----0--0--0--0--0--|-------0----0--0--0--0--0----0--0--||
G|----------------------------|-----------------------------------||
D|----------------------------|-----------------------------------||
A|----------------------------|-----------------------------------||
E|--0----------------------
De rest van dit nummer alleen voor Gitaartabs leden! Maak gratis Gitaartabs account aan . 
Gitaar Tabs

Download, print en speel de Tab ♪ Bruce Springsteen - Born In The U.s.a

Meld je aan en print, download of speel binnen 15 sec mee Tab ♫ Bruce Springsteen - Born In The U.s.a.
Reeds 70.000 gitaristen zijn je voorgegaan.

Gratis Aanmelden Gitaartabs

Comments Bruce Springsteen - Born In The U.s.a - tab

xexo

Xexo 2010-01-28

wat is de slag