• Streaming gitaar liedjes spelen
  • Leer gitaar spelen & gitaarlessen
  • 75.000 leden
Nog 10 tab te gaan voor deze maand.
(chord formations + pick pattern:)

C           Am          G           F           G#
------0---- ------0---- ------3---- ------1---- ------4----
--1---1-1-- --1---1-1-- --3---3-3-- --1---1-1-- --4---4-4--
--0-----0-- --2-----2-- --4-----4-- --2-----2-- --5-----5--
----2------ ----2------ ----5------ ----3------ ----6------
--3-------- --0-------- ----------- ----------- -----------
----------- ----------- --3-------- --1-------- --4--------

Em          Bm          Dm          Cmaj7/F
------0---- ------2---- ------1---- ------0----
--0---0-0-- --3---3-3-- --3---3-3-- --0---0-0--
--0-----0-- --4-----4-- --2-----2-- --0-----0--
----2------ ----4------ ----0------ ----3------
----------- ----------- --0-------- --3--------
--0-------- --2-------- ----------- -----------



(Intro:)

Em  Bm  Em  Bm  F  G  F  G 

Am   G                 C   C
Once    there was this kid who
F           C            G#               C
Got into an accident and couldn't co
De rest van dit nummer alleen voor Gitaartabs leden! Maak gratis Gitaartabs account aan . 
Gitaar Tabs

Download, print en speel de Tab ♪ Crash Test Dummies - Mmmm Mmmm Mmmm Mmmm

Meld je aan en print, download of speel binnen 15 sec mee Tab ♫ Crash Test Dummies - Mmmm Mmmm Mmmm Mmmm.
Reeds 70.000 gitaristen zijn je voorgegaan.

Gratis Aanmelden Gitaartabs

Wat vind jij van deze song? Crash Test Dummies - Mmmm Mmmm Mmmm Mmmm

Comments Crash Test Dummies - Mmmm Mmmm Mmmm Mmmm - tab

Plaats opmerkingen e.o. suggestie voor Crash Test Dummies - Mmmm Mmmm Mmmm Mmmm

Meer Crash Test Dummies songs

Crash Test Dummies - Mmmm Mmmm Mmmm Mmmm