• Streaming gitaar liedjes spelen
  • Leer gitaar spelen & gitaarlessen
  • 75.000 leden
INTRO
e-------------------------------------
b-------------------------------------
g-------------------------------------
d-------------------------------------
a-777-777-555-555---------------------
e-----------------777-777-333-333-----

HOOFD REFREIN
e-------------------------------------------------------
b-------------------------------------------------------
g-------------------------------------------------------
d----5----------------5----7--5---------------5---------
a-7----7--5-----5--7-----7-------7--5--7---------7------
e------------7---------------------------------------x2 on each chorus

VERS
e---------------------------------------------
b---------------------------------------------
g---------------------------------------------
d---------------------------------------------
a-5--7------7-----7-----7--5--7-----7----
De rest van dit nummer alleen voor Gitaartabs leden! Maak gratis Gitaartabs account aan . 
Gitaar Tabs

Download, print en speel de Tab ♪ Deep Purple. - Black Night

Meld je aan en print, download of speel binnen 15 sec mee Tab ♫ Deep Purple. - Black Night.
Reeds 70.000 gitaristen zijn je voorgegaan.

Gratis Aanmelden Gitaartabs

Comments Deep Purple. - Black Night - tab

kenworth

Kenworth 2012-06-17

Ook hier de tekst.