• Streaming gitaar liedjes spelen
  • Leer gitaar spelen & gitaarlessen
  • 75.000 leden
Intro/Main:
E|----------------------------|
B|----------------------------|
G|-6--6--8--8--8--9--9--11-11-|  X10
D|-X--X--X--X--X--X--X--X--X--|
A|-4--4--6--6--6--7--7--9--9--|
E|----------------------------|

Rhythm Fill 1: (After Second Main Riff)
E|-W+W---W+W-|
B|-----------|
G|--6-----2--|  X2 
D|--6-----2--|
A|--4-----0--|
E|-----------|


E|------------------------------------------------------|
B|------------------------------------------------------|
G|-6-6--X-X-X--6-6-6--X-X-X--6-6--X-X-X--6-6-6--X-X-X-X-|
D|-6-6--X-X-X--6-6-6--X-X-X--6-6--X-X-X--6-6-6--X-X-X-X-|
A|-4-4--X-X-X--4-4-4--X-X-X--4-4--X-X-X--4-4-4--X-X-X-X-|
E|------------------------------------------------------|
                                                           X2
E|------------------------------------------------------|
B|------------------------------------------------------|
G|-2-2--X-X-X--2-2-2--X-X-X--2-2--X-X-X--2-2-2--X-X-X-X-|
D|-2-2--X-X-X--2-2-2--X-X-X--2-2--X-X-X--2-2-2--X-X-X-X-|
A|-0-0--X-X-X--0-0-0--X-X-X--0-0--X-X-X--0-0-0--X-X-X-X-|
E|------------------------------------------------------|


E|----------------------------|
B|----------------------------|
G|-6--6--8--8--8--9--9--11-11-|  X3
D|-X--X--X--X--X--X--X--X--X--|
A|-4--4--6--6--6--7--7--9--9--|
E|----------------------------|

Lead Fill 1: (After Second Main Riff)
E|-9-9-9-9--7-7-7-7--9-9-9-9--7-7-7-7-|
B|-9-9-9-9--7-7-7-7--9-9-9-9--7-7-7-7-|  X2
G|------------------------------------|
D|------------------------------------|
A|------------------------------------|
E|------------------------------------|


E|---W+W---|------W+W---W+W-|
B|---------|----------------|
G|---------|-6-----2-----6--|  X2
D|-R-E-S-T-|-6-----2-----6--|
A|---------|-4-----0-----4--|
E|---------|----------------|


E|------------------------------------------------------|
B|------------------------------------------------------|
G|-6-6--X-X-X--6-6-6--X-X-X--6-6--X-X-X--6-6-6--X-X-X-X-|
D|-6-6--X-X-X--6-6-6--X-X-X--6-6--X-X-X--6-6-6--X-X-X-X-|
A|-4-4--X-X-X--4-4-4--X-X-X--4-4--X-X-X--4-4-4--X-X-X-X-|
E|------------------------------------------------------|
                                                           X3
E|------------------------------------------------------|
B|------------------------------------------------------|
G|-2-2--X-X-X--2-2-2--X-X-X--2-2--X-X-X--2-2-2--X-X-X-X-|
D|-2-2--X-X-X--2-2-2--X-X-X--2-2--X-X-X--2-2-2--X-X-X-X-|
A|-0-0--X-X-X--0-0-0--X-X-X--0-0--X-X-X--0-0-0--X-X-X-X-|
E|------------------------------------------------------|

Main: (After Second Verse)
E|----------------------------|
B|----------------------------|
G|-6--6--8--8--8--9--9--11-11-|  X4
D|-X--X--X--X--X--X--X--X-
De rest van dit nummer alleen voor Gitaartabs leden! Maak gratis Gitaartabs account aan . 
Gitaar Tabs

Download, print en speel de Tab ♪ Deep Purple. - Machine Head

Meld je aan en print, download of speel binnen 15 sec mee Tab ♫ Deep Purple. - Machine Head.
Reeds 70.000 gitaristen zijn je voorgegaan.

Gratis Aanmelden Gitaartabs