• Streaming gitaar liedjes spelen
  • Leer gitaar spelen & gitaarlessen
  • 75.000 leden
    E E E E Q  E E   E E E E Q  Q    E E E E Q  E E   E Q.   +Q   Q    5x
||-----------------|---------------|----------------|------------------||
||o----------------|---------------|----------------|-----------------o||
||--0---3---5----0-|---3---6-5-----|-0---3---5----3-|---0----(0)-------||
||--0---3---5----0-|---3---6-5-----|-0---3---5----3-|---0----(0)-------||
||o----------------|---------------|----------------|-----------------o||
||-----------------|---------------|----------------|------------------||


  E E E E Q  E E   E E E E Q  Q    E E E E Q  E E   E Q.   +Q    Q
|----------------|---------------|----------------|--------------------|
|----------------|---------------|----------------|--------------------|
|-0---3---5----0-|---3---6-5-----|-0---3---5----3-|---0----(0)---------|
|-0---3---5----0-|---3---6-5-----|-0---3---5----3-|---0----(0)--(5)\---|
|----------------|---------------|----------------|-------------(5)\---|
|----------------|---------------|----------------|--------------------|


 Verse
  PM----------------------------------------------|     PM------------|
  E E e E E E e E   E E e E E E e E   E E e E E E e E   E E e E E E e E
|-----------------|-----------------|-----------------|------------------|
|-----------------|-----------------|-----------------|------------------|
|-----------------|-----------------|-0---0-----------|---------0---0----|
|-----5-------5---|-----5-------5---|---0-----3---3---|-----5-----0------|
|---5-------5-----|---5-------5-----|-----------3-----|---5--------------|
|-3-------3-------|-3-------3-------|-----------------|-3----------------|


  PM------------------------------------------------------------------|
  E E e E E E e E   E E e E E E e E   E E e E E E e E   E E e E E E e E
|-----------------|-----------------|-----------------|------------------|
|-----------------|-----------------|-----------------|------------------|
|-----------------|-----------------|-----------------|------------------|
|-----5---5---5---|-----5-------5---|-----5-------5---|-----5-------3----|
|---5-------5-----|---5-------5-----|---5-------5-----|---5-------3------|
|-3---------------|-3-------3-------|-3-------3-------|-3-------1--------|


  PM------------------------------------------------------------------|
  E E e E E E e E   E E e E E E e E   E E e E E E e E   E E e E E E e E
|-----------------|-----------------|-----------------|------------------|
|-----------------|-----------------|-----------------|------------------|
|-----------------|-----------------|-----------------|------------------|
|-----5-------5---|-----5-------5---|-----5-------5---|-----5---3---3----|
|---5-------5-----|---5-------5-----|---5-------5-----|---5-------3------|
|-3-------3-------|-3-------3-------|-3-------3-------|-3----------------|


  PM---------------------------------------------------
  E E e E E E e E   E E e E E E e E   E E e E E E e E
|-----------------|-----------------|-----------------|
|-----------------|-----------------|-----------------|
|-----------------|-----------------|-----------------|
|-----5-------5---|-----5-------5---|-----5-------5---|
|---5-------5-----|---5-------5-----|---5-------5-----|
|-3-------3-------|-3-------3-------|-3-------3-------|


 ---------------------------------|
  E E e E E E e E   E E e E E E e E
|-----------------|-------------------||
|-----------------|-------------------||
|-----------------|-------------------||
|-----5---3---3---|-----5-------5-----||
|---5-------3-----|---5-------5-------||
|-3---------------|-3-------3---------||


 Chorus
  Q  Q  H      Q  Q  H      Q  E E +H
|------------|------------|---------------|
|------------|------------|---------------|
|-------5----|------------|------0-(0)----|
|----5-------|-------6----|----0----------|
|-3----------|----6-------|---------------|
|------------|-4----------|-3-------------|


  +W           Q  Q  H      Q  Q  Q.  E
|------------|------------|---------------|
|------------|------------|---------------|
|-(0)--------|-------5----|---------------|
|------------|----5-------|-------6-------|
|------------|-3----------|----6----------|
|------------|------------|-4-------------|


  E E E E Q  E E   E E E E Q.   E   E E E E Q.   E   +E  Q.   +Q   Q
|----------------|----------------|----------------|-------------------|
|----------------|----------------|----------------|-------------------|
|-----3---5------|---3---6-5------|-----3---5----3-|-(3)---------------|
|-5---3---5----5-|---3---6-5------|-5---3---5----3-|-(3)-5----(5)------|
|-5------------5-|----------------|-5--------------|-----5----(5)------|
|----------------|----------------|----------------|-------------------|


  E E E E Q  E E   E E E E Q  Q    E E E E Q.   E   E Q.   +Q   Q
|----------------|---------------|----------------|------------------||
|----------------|---------------|----------------|------------------||
|-----3---5------|---3---6-5-----|-----3---5----3-|-------------5\---||
|-5---3---5----5-|---3---6-5-----|-5---3---5----3-|---5----(5)--5\---||
|-5------------5-|---------------|-5--------------|---5----(5)--5\---||
|----------------|---------------|----------------|------------------||


   Verse
    E E e E E E e E   E E e E E E e E   E E e E E E e E   E E e E E E e E  3x
||------------------|-----------------|-----------------|------------------||
||o-----------------|-----------------|-----------------|-----------------o||
||------------------|-----------------|-----------------|------------------||
||------5-------5---|-----5-------5---|-----5-------3---|-----5-------5----||
||o---5-------5-----|---5-------5-----|---5-------3-----|---5-------5-----o||
||--3-------3-------|-3-------3-------|-3-------1-------|-3-------3--------||


 Chorus
                            <
  Q  Q  H      Q  Q  H      W          +W           Q  Q  H      Q  Q  Q.   E
|------------|------------|----------|------------|------------|---------------|
|------------|------------|----------|------------|------------|---------------|
|-------5----|------------|-0--------|-(0)--------|-------5----|---------------|
|----5-------|-------6----|----------|------------|----5-------|-------6-------|
|-3----------|----6-------|----------|------------|-3----------|----6----------|
|------------|-4----------|-3--------|-(3)--------|------------|-4-------------|


  E E E E Q  E E   E E E E Q.   E   E E E E Q.   E   +E  Q.   +Q   Q
|----------------|----------------|----------------|-----------------|
|----------------|----------------|----------------|-----------------|
|-----3---5------|---3---6-5------|-----3---5----3-|-(3)-------------|
|-5---3---5----5-|---3---6-5------|-5---3---5----3-|-(3)-5----(5)----|
|-5------------5-|----------------|-5--------------|-----5----(5)----|
|----------------|----------------|----------------|-----------------|


  E E E E Q  E E   E E E E Q.   E   E E E E Q.   E   E  Q.   +Q    E   E
|----------------|----------------|----------------|----------------------||
|----------------|----------------|----------------|----------------------||
|-----3---5------|---3---6-5------|-----3---5----3-|------------------10--||
|-5---3---5----5-|---3---6-5------|-5---3---5----3-|----5----(5)--12------||
|-5------------5-|----------------|-5--------------|----5----(5)----------||
|----------------|----------------|----------------|----------------------||
|
| Gtr II
| W                W                W                H.            Q
|----------------|----------------|----------------|----------------------||
|----------------|----------------|----------------|----------------------||
|----------------|----------------|----------------|----------------------||
|----------------|----------------|----------------|---------------8\-----||
|----------------|----------------|----------------|---------------8\-----||
|----------------|----------------|----------------|---------------8\-----||


 Guitar Solo
   ~~                                   ~~~
   H        +E  E  a       +E   E    E  Q.      E      q    E
|---------------------------------|---------------------------|
|-----------------13pb15==(13)r13p|=11---------11b11.5--------|
|-12-------(12)-------------------|----12---------------------|
|---------------------------------|------------------------12-|
|---------------------------------|---------------------------|
|---------------------------------|---------------------------|
|
|  PM----------------------------------------------------------
|  E E E E   E  E  Q                 E  E  e E  E      E e  
De rest van dit nummer alleen voor Gitaartabs leden! Maak gratis Gitaartabs account aan . 
Gitaar Tabs

Download, print en speel de Tab ♪ Deep Purple. - Smoke On The Water (hele Versie)

Meld je aan en print, download of speel binnen 15 sec mee Tab ♫ Deep Purple. - Smoke On The Water (hele Versie).
Reeds 70.000 gitaristen zijn je voorgegaan.

Gratis Aanmelden Gitaartabs

Comments Deep Purple. - Smoke On The Water (hele Versie) - tab

metalhead

Metalhead 2013-11-10

3b5==(3)r3-(3) b staat voor bend (opduwen) je bend de snaar op de 3 fret zodat deze een hele toon hoger klinkt. dus de toon op fret 5 de r staat voor release (loslaten) dus de bend loslaten


darm87

Darm87 2011-07-20

wat houd dit nou weer in?: 3b5==(3)r3-(3)

het lijkt wel natuurkunde!


darm87

Darm87 2011-07-20

er staat niet bij welke snaren het zijn. is dit  de volgorde van de snaren bij dit stuk??

E

B

G

D

A

E


darm87

Darm87 2011-07-20

die andere met alleen de intro was tenminste nog duidelijk, maar hier snap ik niet veel van


darm87

Darm87 2011-03-27

jongens, kom op zeg, weten jullie nog niet eens hoe tabletuur werkt. ik zal het even uit leggen. ik begin bij (5/). nou, tussen haakjes betekend dat je het mag spelen en als je het speelt moet je een slide maken vanaf de 5e fret. next. 3 5 5 dit is gewoon een powerchord, zo moet je hem pakken, een G powerchord. en dam mute je de snaren. mute doe je met je hanspalm op de snaren. dan hoor je een klank die veel wordt gebruikt bij heavy metal. en dan doe je je plektrum langzaam over de bovenste 3 snaren naar beneden als je snapt wat ik bedoel. volgende. / 0 / / 0 / dit betekend herhalen. dan moet je dat stuk tussen deze tekens herhalen. nou missparker, bedankt voor je respect.


darm87

Darm87 2011-03-27

mijn uileg ziet er raar uit als je het zo bekijkt, toen ik het typte zag het er een stuk duidelijker uit


darm87

Darm87 2011-03-11

NICE


james blond

James blond 2010-12-21

cool numerXD :P


yaron-veldhuis

Yaron-veldhuis 2010-11-01

simpel


Naomi1998

Naomi1998 2010-09-05

Eehm Sorry hoor Maar

Hoe moet je dat lezen?!! Wilt iemand mij vertellen hoe je dat moet lezen !? Ik snap er niks van!!!

:D Tnx


kev

Kev 2010-08-22

een van de meest bekendste rifjes;)


gitaarmartijn

Gitaarmartijn 2010-08-20

Hallo mensen dit snap ik niet in het tweede stukje:

               ---(5/) 

               ---(5/)

 

Is dat nou de bovenste E of onderste snaar e , wie zou mij dat kunnen vertellen

bedankt!                                                                  


xxDees

XxDees 2010-07-19

hoe moet je dit spelen:

-       want dat staan er toch 2 boven elkaar? en moet je dat dan tegelijk doen ofwat?
0      dit snap ik dus niet maar zoiets staat er heel vaak bij
-
-

0
-


Demiiej1220

Demiiej1220 2010-05-24

wahah mijn hand doet pijn :(
                                                                       5
                                                                5
mij lukt het niet helemaal als je 3                          Moet spelen

maar ik blijf oefenen , dan komt het wel goed hoop ik

 


sandra

Sandra 2010-05-14

redelijk makkelijk de intro is ook te vinden op youtube
je moet opzoeken : how to play smoke on the water on guitar


hamster

Hamster 2010-02-26

mooi nummer

 


Maddmaxxie

Maddmaxxie 2010-02-20

Intro is makkelijk, de rest moet ik nog ff naar kijken Xd

 


Fleurr

Fleurr 2010-02-13

huuuh?? hier snap ik echt niets van.. hoe moet je dat lezen??


rowen0224

Rowen0224 2010-02-10

mooi nmmr hij is alleen wel best moeilijk om te spelen XD :p


Rutger Hellegers

Rutger Hellegers 2010-02-03

Leuk stuk! Kan alleen de eerste 4 regels;(


Yinca

Yinca 2009-11-04

http://www.ultimate-guitar.com/tabs/d/deep_purple/smoke_on_the_water_tab.htm 

heb jij ook op deze site gepost of heb je hem letterlijk gekipt en geplakt??? :S


gitaarbeun

Gitaarbeun 2009-09-19

netjes gedaan


jesse0174

Jesse0174 2009-01-15

ik hou et bij de intro Tong


missparker

Missparker 2008-07-10

respect voor iedereen die dit kan __O__


olaf

Olaf 2008-05-08

als je zegt hele versie bedoel je ook echt de hele versie Geschrokken Tong Knipoog


rick

Rick 2008-01-20

uhm deze staat er al opTongTong