• Streaming gitaar liedjes spelen
  • Leer gitaar spelen & gitaarlessen
  • 75.000 leden
Nog 10 tab te gaan voor deze maand.
Band : Deep Purple 
Nummer : Smoke On The Water 

E |------------------------------------------| 
B |----------
De rest van dit nummer alleen voor Gitaartabs leden! Maak gratis Gitaartabs account aan . 
Gitaar Tabs

Download, print en speel de Tab ♪ Deep Purple. - Smoke On The Water

Meld je aan en print, download of speel binnen 15 sec mee Tab ♫ Deep Purple. - Smoke On The Water.
Reeds 70.000 gitaristen zijn je voorgegaan.

Gratis Aanmelden Gitaartabs

Wat vind jij van deze song? Deep Purple. - Smoke On The Water

Comments Deep Purple. - Smoke On The Water - tab

heysmile

Heysmile 2015-05-10

kei makkelijk maar toch ook best cool


heysmile

Heysmile 2015-05-10

kei makkelijk maar toch ook best cool


metalhead

Metalhead 2013-11-10

je kan dit ook met power akkoorden spelen e-----------------------------------------------------+ b-----------------------------------------------------+ g-----------------------------------------------------+ d-----------------------------------------------------+ a--5-8-10---5-8-11--10-----5-8--10--8-5---+ e--3-6-8-----3-6-9---8-------3-6--8----6-3---+


JanH

JanH 2013-09-09

Officiele video:


bentewyger

Bentewyger 2013-04-19

leuk en makkelijk nummer ^^ vanmiddag net gitaar gekregen en tis leuk dat ik tenminsten al iets kan


basje364

Basje364 2013-03-24

hoe moet je diit zien?. ps : ik ben een beginner, kan iemand me helpen?


NBT_KING

NBT_KING 2013-03-10

WAAR SLAAT DIT OP JE KAN HET HELE LIEDJE NIET EENS ZIEN'-'


nusa0001

Nusa0001 2013-02-06

keitof


tijmentje

Tijmentje 2013-01-28

em gewoon dan barree op 3, 5 em gewoon 3,5,6,5 em gewoon klaar


tijmentje

Tijmentje 2013-01-28

soorry em is E


110823

110823 2012-02-28

Waarom is ie niet compleet???? Zo kan natuurlijk iedereen tabs plaatsen


larse2

Larse2 2011-11-13

ik kon hem al! maar het geeft een goed voorbeeld van hoe gemakkelijk leuk kan zijn!


darm87

Darm87 2011-08-05

dit liedje,, kan je van elke nooit elke snaar, elk akkoord spelen.

Is dan gewoon een andere toonhoogte,,


exsskating

Exsskating 2011-07-28

nnice!! hele wil nie laden!!:( koos vriendloos!


darm87

Darm87 2011-04-17

je kan hem gewoon op alle snaren spelen. Zelf vind ik AD het best klinke. XD


stierp2000

Stierp2000 2010-12-27

Zo vind ik hem wel gaaf, E |--0-3-5---0-3-6-5---0-3-5--3-0-------------------------| B |--0-3-5---0-3-6-5---0-3-5--3-0-------------------------| G |------------------------------------------------------| D |------------------------------------------------------| A |------------------------------------------------------| E |------------------------------------------------------| E |--0-3-5---0-3-6-5---0-3-5--3-0-------------------------| B |------------------------------------------------------| G |------------------------------------------------------| D |------------------------------------------------------| A |------------------------------------------------------| E |------------------------------------------------------| E |--0-3-5---0-3-6-5---0-3-5--3-0-------------------------| B |--0-3-5---0-3-6-5---0-3-5--3-0-------------------------| G |------------------------------------------------------| D |------------------------------------------------------| A |------------------------------------------------------| E |------------------------------------------------------|


illandjan

Illandjan 2010-12-09

1e liedje wat ik kon (k speel nog geen week)

 


*roelof*

*roelof* 2010-12-04

kan je ook het hele liedje opzoeken?thanks

 Gr. *roelof*


JENSZ

JENSZ 2010-10-27

Nooit gedacht dat je dit deuntje op zoveel manieren kon spelen :p, ik speel het zo als het voorbeeld, en nog op een paar andere manieren --> voor afwisseling :p


rubber

Rubber 2010-10-03

Je kunt hem beter zo spelen klinkt veel mooier.

e ---------------------------

b ---------------------------

g 0 3 5,0 3 6 5, 0 3 5,3 0

d 0 3 5,0 3 6 5, 0 3 5,3 0

a -----------------------------

e ------------------------------


rubber

Rubber 2010-10-03

sorry ,zo staat hij hierboven ook,had nog niet gezien.


woutveenstra1

Woutveenstra1 2010-07-08

Ik speel hem zo

E|---0---3---5---0---3---6---5---0---3---5---3---0----
b|-------------------------------------------------------------
g|-------------------------------------------------------------
d|-------------------------------------------------------------
a|-------------------------------------------------------------
e|-------------------------------------------------------------

lekker makkelijk!


Fleurr

Fleurr 2010-02-13

dit is alleen de intro? heeft iemand misschien de tekst met de akkoorden en zo boven weetjewel, dat leest makkelijker(A) alvast bedankt!


nickkevin

Nickkevin 2010-02-01

e ------0-----3-----5-----0-------3-------6--------5-------0---------3--------5-------3--------0---------------

a ------0------3----5-----0--------3-------6------5--------0---------3---------5------3--------0------------------

d -------------------------------------------------------------------------------------------------------------

g ----------------------------------------------------------------------------------------------------------

b -------------------------------------------------------------------------------------------------------

e -----------------------------------------------------------------------------------------------------------                           

zoo speel ik hem

 


aanoouuk

Aanoouuk 2009-10-25

Ik speel hem zo:

E |--5-------5---------5----------5------------|
A |----3--5----3-6-5----3-5-3---------------|
D |-----------------------------------------------|
G |-----------------------------------------------|
B |-----------------------------------------------|
E |-----------------------------------------------|


yogast

Yogast 2009-07-18

ik heb net een gitaar maar als je wil weten hoe het met alles zit moed je op youtube gewoon wat filmpjes op zoeken dan heb je zo ale info ik speel hem ook wel is zo


E |--0-3-5---0-3-6-5---0-3-5---3-0-----------|
B |------------------------------------------|
G |------------------------------------------|
D |--0-3-5---0-3-6-5---0-3-5---3-0-----------|
A |------------------------------------------|
E |------------------------------------------|
wel zonder plectrum


marquancez

Marquancez 2009-07-02

ikheb nog geen gitaar maar ik wil er wel 1 kopen maar hoe zit het met die 2-5-7 enzo want ik weet niet wat er mee bedoelt word alvast bedankt voor het hulp Beschaamd


guitarchicklot

Guitarchicklot 2009-05-19

Ik speel hem zo:

e |------------------------------------------|
B |------------------------------------------|
G |------------------------------------------|
D |--2-5-7---2-5-8-7---2-5-7---2-2-----------|
A |--4-7-9---4-7-10-9---4-7-9---4-4-----------|
E |--4-7-9---4-7-10-9---4-7-9----4-4----------|

Jij speelt hem wel heel erg amateuristisch.... Knipoog
en deze is net zo makkelijk maar klinkt veel vollerLachen


oneandonly

Oneandonly 2009-05-02

jammer dat hier niet het hele nummer staat Droevig , maar ja, dit stuk is ook leuk om te spelen Knipoog


thom.bos

Thom.bos 2009-03-17


e |------------------------------------------|
B |------------------------------------------|
G |------------------------------------------|
D |--2-3-5---2-3-6-5---2-3-5---5-2-----------|
A |--2-3-5---2-3-6-5---2-3-5---5-2-----------|
E |------------------------------------------|


thom.bos

Thom.bos 2009-03-17

Palm mutend doen Lachen


thom.bos

Thom.bos 2009-03-17

Palm mutend doen Lachen


stijntje

Stijntje 2009-03-09

cool Lachen Grijns Knipoog Lachebek


Zoeperman

Zoeperman 2009-02-02

ik heb nog een andere variant.
klinkt vooral erg goed als je hem pickt met je vingers.

e |------------------------------------------|
B |------------------------------------------|
G |------------------------------------------|
D |--5-8-10---5-8-11-10---5-8-10-8-5---------|
A |--5-8-10---5-8-11-10---5-8-10-8-5---------|
E |------------------------------------------|


pietjeekes

Pietjeekes 2008-12-05

mooi en simpel

is ok de versie die ik speel


nailpinboy

Nailpinboy 2008-12-02

kei grave song


Manon33

Manon33 2008-10-28

dit was het eerste dat ik kon spelenLachen


woutervandenberghe

Woutervandenberghe 2008-10-26

simpel en leuk


Harm the screaming guitarist

Harm the screaming guitarist 2008-09-08

Ik heb nog wel de versie voor de gevorderde gitarist. stuur maar een berichtje als je m wilt. over een paar dagen staat hij der wel op denk ik.


Metalman666

Metalman666 2008-06-10

E |--0-3-5---0-3-65---0-3-5--3-0-------------------------|
B |--0-3-5---0-3-65---0-3-5--3-0-------------------------|
G |------------------------------------------------------|
D |------------------------------------------------------|
A |------------------------------------------------------|
E |------------------------------------------------------|


Speel em soms ook zo ! Lachebek


LoveMika

LoveMika 2008-06-07

ik vind hem zo het best klinken :

E |------------------------------------------|
B |------------------------------------------|
G |------------------------------------------|
D |------------------------------------------|
A |--0-3-5---0-3-6-5---0-3-5-3-0-------------|
E |--0-3-5---0-3-6-5---0-3-5-3-0-------------|

Je kan hem ook alleen op de bovenste snaar spelen
Grijns


SORAYAxROCKSxYOURxSOCKS

SORAYAxROCKSxYOURxSOCKS 2008-03-30

perfect


m@rtyb

M@rtyb 2008-03-04

Dit is egt zo'n vet nummer en tog zo easy,
echt handig, Knipoog


samurai t7

Samurai t7 2008-02-12

laat maar ik weet het al
Grijns


Sorayarkoestisch

Sorayarkoestisch 2008-02-10

Nice.. xD


koenb

Koenb 2007-12-08

Dit is een goed lied om mee te beginnen maar probeer de solo niet is echt moeilijk.


Slipmurd

Slipmurd 2007-12-07

ik heb dat (voor het refrein) gevonden :

|-----3-------6---3-----1>3---|
|-----5-------8---3-----1>3---|
|---5-------8-----4-----2>4---|
|-5-------8-------5-----3>5---|
|-3-------6-------5-----3>5---|
|-----------------3-----1>3---|

wat denken jullie er van ?


lauraaa_6string

Lauraaa_6string 2007-12-06

hey Guitarhero
ik vraag ook al heel mn leven om ee elektrische maja, krijg kik da nie eh
amuseert er u mee, maa zou ge geen lessen volgen of zo, dan gaade da rapper onder de knie hebben?!!!! kweetnie eh, ma zonder die lessen voor gitaar zou kik der niks van bakken zenne...
tis misschien een tip
greetz
Laura


guitar hero

Guitar hero 2007-12-01


patrickbcd12

Patrickbcd12 2007-11-20

ik speel hem zo
E |------------------------------------------|
B |------------------------------------------|
G |--6-9-11---6-9-10---6-9-11---10-6---------|
D |--6-9-11---6-9-10---6-9-11---10-6---------|
A |------------------------------------------|
E |------------------------------------------|
zo klinkt ie ook wel vet


Nathan

Nathan 2007-10-10

Die 2 snaren moet je tegelijk aanslaan ja, dat had je ook al hierboven kunnen zien Tong


lorrre

Lorrre 2007-10-07

ik speel eigelijk nog niet gitaar en dus heb ik een genante vraag Grijns
moet je die snaren telkes gelijk aanslagen?


rick

Rick 2007-09-15

echt iedereen kan dit liedje spelen :Lachebek


rick

Rick 2007-09-14

sam -- ja dit liedje kun je ook met een akoestische gitaar met elektrische klinkt hij net iets mooier Knipoog Lachen


sam

Sam 2007-07-26

ik speel net gitaar en ik wil dit nummer graag kunne spelen kun je het ook met een arkoestise gitaar? Verbaasd


MtGr

MtGr 2007-06-10


m@rtyb

M@rtyb 2007-06-06

kijk eens bij summertime die is ook vet en is van onze band!!! :Lachebek


kenny

Kenny 2007-06-03

wowjow..... Geschrokken wrm zo moeilijk..?!


kenny

Kenny 2007-06-02

wojoh, dit is dik simpel en t klikt echt vet vooral als je dan een paar keer daarvoor dit doet
e-----------------------------------|
b-----------------------------------|
g--0-0-0-0-0-0-0--------------------|
d--0-0-0-0-0-0-0--------------------|
a-----------------------------------|
E-----------------------------------| Cool


MtGr

MtGr 2007-06-02

ik speel hem zo Cool

e-------------3----------5------------------3----------6----5
b-------------3----------5------------------3----------6----5
g--1----------4----------6--------1---------4----------7----6
d--2----------5----------7--------2---------5----------8----7
a--2----------5----------7--------2---------5----------8----7
E-------------3----------5------------------3----------6----6

no 1.......no 2.......no 3.....no 1.......no 2.....no 4..no 3


dan no1,no2,n03,no2,no1


lisanne

Lisanne 2007-05-11

jah indd, ik ben er namelijk een Lachebek, en dan doe ik ook nog aan zelfstudie.
maar toch kan ik deze al spele ;; echt vetLachen


MG

MG 2007-05-09

sorry had hier bove eff een foutje gemaakt hij hoort zo:

e---------------------------|
b---------------------------|
g----3-5---------3-6-5-----3-5---3----|
d--5-3-5-------5-3-6-5---5-3-5---3-5----|
a--5-----------5---------5---------5-----|
E-----------------------------|


MG

MG 2007-05-09

hee weet iemand hoe k een tab kan poste
heb al 3 kee r geprobeerd ma als k hem dan verstuur krijg
k geen beeld meer en sstaat hij er ook nie bij Verbaasd


Sinn

Sinn 2007-05-09

Goed nummer, en een must voor beginnende gitaristen Lachebek


MG

MG 2007-05-07

hee hij te gek om te spele Tong ma op de cd doet ie wat anders...
hij speelt met 1 vinger 2 snaren.


e-----------------------------------|
b-----------------------------------|
g------3---5-------3--6--5-----3--5---3---5--|
d--5---3---5---5---3--6--5-----3--5---3---5--|
a--5-----------5------------5---------|
E---------------------------5--------|


Sinatic

Sinatic 2007-04-11

hey, kspeel gelijk ook nog maar dagje of 2 gitaar en ik vroeg me af of ik beide snaren tegelijk moet aanhalen bij dit lied?


Sander

Sander 2007-04-11

als twee getallen recht boven elkaar staan in een tab, dan moet je ze altijd tegelijk aanslaan.

Dus het antwoord is: JA!


gilerakevie

Gilerakevie 2007-02-24

Legendarisch introTong het is zo makkelijk maar hijs zo vet om te spelen


suuzefluus

Suuzefluus 2007-02-20

Stoer man ! Grijns


sjaak82

Sjaak82 2007-02-20

heeft er ook iemand de tekst of weet iemand waar ik die kan krijgenVerbaasd


T.sSJee

T.sSJee 2007-01-02

deze klinkt wel Gaaf ^^


Quassi

Quassi 2006-12-17

Klinkt ie wel echt ? Grijns k wil wel even proberen of ik het beter kan laten klinken Knipoog


PunkRockPrincess

PunkRockPrincess 2006-12-17

Klinkt ie wel echt ? k wil wel even proberen of ik het beter kan laten klinken


Quassi

Quassi 2006-12-09

gaaf !!! ik heb vanmiddag een gitaar gekocht, en er komt al echt Smoke uit :-)


PunkRockPrincess

PunkRockPrincess 2006-12-07

lol x] k hoop dat k het een beetje duidelijk heb gedaan Cool


PunkRockPrincess

PunkRockPrincess 2006-12-06

Tis wel een gaaf nummer ^^


armatt

Armatt 2006-12-06

beter kan niet mensen :p


Plaats opmerkingen e.o. suggestie voor Deep Purple. - Smoke On The Water