• Streaming gitaar liedjes spelen
  • Leer gitaar spelen & gitaarlessen
  • 80.000 leden
     Bm    A   F#m   E    D*   E*   

e|----2----0---------0---------------|
B|----3----2----2----0----3----5-----|
G|----4----2----2----1----2----4-----|
D|----4----2----4----2----4----6-----|
A|----2----0----4----2----5----7-----|
E|--------------2----0---------------|


INTRO / VERSES
     
    Bm                     A
e|-----------------------------------|
B|-----------3----------3------2--2--|
G|--------4--------------------2--2--|
D|-----4-------------4---------2--2--|
A|--2-------------2--------0---------|
E|-----------------------------------|

    F#m                    E
e|-----------------------------------|
B|-----------------------------------|
G|-----------2----------2------1--1--|
D|--------4--------------------2--2--|
>> Registreer, speel & download <<
Meld nu aan en speel de rest van Dotan - Hungry

>> Registreer, speel & download <<
A|-----4-------------4---------2--2--|
E|--2-------------2--------0---------|


INTERLUDE / BRIDGE

    D*                     D*
e|---------------------------------------------|
B|-----------3----------3-----------3-------3--|
G|--------2----------------------2-------------|
D|-----4-------------4--------4----------4-----|
A|--5-------------5--------5-----------5-------|
E|---------------------------------------------| 

    D*                     E*
e|---------------------------------------------|
B|-----------3----------3-----------5-------5--|
G|--------2----------------------4-------------|
D|-----4-------------4--------6----------6-----|
A|--5-------------5--------7----------7--------|
E|---------------------------------------------|

More info

Comments Dotan - Hungry - tab

Gerard

Gerard 2015-05-31