• Streaming gitaar liedjes spelen
  • Leer gitaar spelen & gitaarlessen
  • 75.000 leden
Nog 10 tab te gaan voor deze maand.
Intro:

    A1                             A2*
   
e|--7--7--5--7--9----------------|--7--7--5--7--9-----------------------|
B|-----------------7--5----0--2--|-----------------7--5------5----0--2--|
G|-------------------------------|--------------------------------------|
D|-------------------------------|------------------------0-------------|
A|-------------------------------|--------------------------------------|
E|-------------------------------|--------------------------------------|

Verses 1 + 2:
     
    A1                             A2

e|--7--7--5--7--9----------------|--7—-7--5--7--9---------------|
B|-----------------7--5----0--2--|-----------------7--5------5--|
G|-------------------------------|------------------------------|   (X 2)
D|-------------------------------|------------------------0-----|   
A|-------------------------------|------------------------------|
E|-------------------------------|------------------------------|
              
Across the city there's a golden chill
A rare holding still
As if somebody's gonna sing
A dip in tempo for the castanet shoes
No blues and twos
As if somebody's gonna sing

And in the moment hanging on to you
We're a bundle of cloth
De rest van dit nummer alleen voor Gitaartabs leden! Maak gratis Gitaartabs account aan . 
Gitaar Tabs

Download, print en speel de Tab ♪ Elbow - Head For Supplies

Meld je aan en print, download of speel binnen 15 sec mee Tab ♫ Elbow - Head For Supplies.
Reeds 70.000 gitaristen zijn je voorgegaan.

Gratis Aanmelden Gitaartabs

Wat vind jij van deze song? Elbow - Head For Supplies

Comments Elbow - Head For Supplies - tab

Plaats opmerkingen e.o. suggestie voor Elbow - Head For Supplies