• Streaming gitaar liedjes spelen
  • Leer gitaar spelen & gitaarlessen
  • 75.000 leden
E|------------------------------------------------------0-1-0---0----|
B|----0-1-3-1------------0-1-3-1--------0-1-1-3-1-------------3---3--|
G|--2---------0--------2--------------2-----------0------------------|
D|-------------------------------------------------------------------|
A|-------------------------------------------------------------------|
E|-------------------------------------------------------------------|

E|------------------------------------------------------0-1-0-----0----|
B|----0-1-3-1------------0-1-3-1--------0-1-1-1-3-1-------------3---3--|
G|--2---------0--------2----
De rest van dit nummer alleen voor Gitaartabs leden! Maak gratis Gitaartabs account aan . 
Gitaar Tabs

Download, print en speel de Tab ♪ Elton John - Can You Feel The Love Tonight.

Meld je aan en print, download of speel binnen 15 sec mee Tab ♫ Elton John - Can You Feel The Love Tonight..
Reeds 70.000 gitaristen zijn je voorgegaan.

Gratis Aanmelden Gitaartabs

Comments Elton John - Can You Feel The Love Tonight. - tab

Lisaapje

Lisaapje 2011-04-14

Zitten er geen bassen bij?


reneeetje98

Reneeetje98 2011-03-26

goede tab! makkelijk ook!


darm87

Darm87 2011-03-25

netjes


darm87

Darm87 2011-03-25

netjes


darm87

Darm87 2011-03-25

goede tabs