• Streaming gitaar liedjes spelen
  • Leer gitaar spelen & gitaarlessen
  • 75.000 leden
Layla (Unplugged)
                     
---------------|--------------------------------|-------------------------
---------------|---------------------3---3------|---5---5---5-------------
------------2--|---------------------3---3------|---5---5---5--2---------2
------------0--|----0--------3-------3---3------|---5---5---5--0---------0
-----0---3-----|--------3----1-------1---1----3-|---3---3---3------0--3---
---------------|--------------------------------|-------------------------

---1-------------------------|---------------------------------------------
---3-----------------3--3----|---5-----------------------------------------
---2-----------------3--3----|---5----------2------------------------------
---------------3-----3--3----|---5-----5----0--------------0---------------
-----------3---1-----1--1--X-|---3--0--3-----------0---3-------------------
-----------------------------|---------------------------------------------


-1----1----------------|----------------------|----------------------------
-3----3----------------|--------------------5-|5\6\5----5-6-5----5-6/8-----
-2----2----------------|------------------7---|------7--------7------------
-0----0---X--3--3----3/|-5--5--5---7----7-----|----------------------------
-------------1--1----1/|-3--3--3---5----------|----------------------------
-----------------------|----------------------|----------------------------


--------------------8----------|-10-12-10/12/10----10----------------------
--6--8/10----8--10------10 13--|----------------13----13-10---10----12/10--
-------------------------------|---------------------------12---12---------
-------------------------------|-------------------------------------------
-------------------------------|-------------------------------------------
-------------------------------|-------------------------------------------


---------------------|---------------------------|-------------------------
---------------5-6-5-|---------------------------|-------------------------
--9--10-9-----7------|-7------7----------------3-|-------------------------
------------7--------|-----7-----7/5---3---3/5---|-------0-----------------
---------------------|-------------------5-------|-5--3-------0---3--------
---------------------|---------------------------|-------------------------


1. What'll you do when you get lonely,  No one waiting by your side?
2. Try to gove you consolation, Your old man he let you down.
3. Make the best of the situation, before I finally go insane.

--4--4--4--4--4--4--4--4-|-4--4--4--4--4--4--4--4-|-4--4--4--X-------------
--5--5--5--5--5--5--5--4-|-4--4--4--4--4--4--4--5-|-5--5--5--X--5--X--7--X-
--6--6--6--6--6--6--6--5-|-5--5--5--5--5--5--5--4-|-4--4--4--X--5--X--7--X-
--6--6--6--6--6--6--6--4-|-6--6--6--6--6--6--6--6-|-6--6--6--X--5--X--7--X-
--4--4--4--4--4--4--4--6-|-6--6--6--6--6--6--6--4-|-4--4--4-----5--X--5--X-
-----------------------4-|-4--4--4--4--4--4--4----|------------------------


--------0-----0----------|
-----------3-----0-------|
1---0/1----1-----1-------|
2----------------2-------|
2------------------------|
0--------------------2---|


You've been runnin' and hidin' too long.  You know it's just your foolish.
Like a fool, I fell in love with you. You turned my whole world uspside.
Please don't say we'll never find a way. Tell me all my love's in vain.


--2--2--2--X--------------|-0--0--0--X-------------|-2--2--2--X----------0-
--2--2--2--X--4--4--4---X-|-0--0--0--X--2--2--2----|-2--2--2--X--4-4-4---0-
--2--2--2--X--4--4--4---X-|-1--1--1--X--2--2--2----|-2--2--2--X--4-4-4---1-
--4--4--4--X--4--4--4---X-|-2--2--2--X--2--2--2----|-4--4--4--X--4-4-4---2-
--4--4--4-----2--2--2---X-|-2--2--2-----0--0--0----|-4
De rest van dit nummer alleen voor Gitaartabs leden! Maak gratis Gitaartabs account aan . 
Gitaar Tabs

Download, print en speel de Tab ♪ Eric Clapton - Layla (unplugged)

Meld je aan en print, download of speel binnen 15 sec mee Tab ♫ Eric Clapton - Layla (unplugged).
Reeds 70.000 gitaristen zijn je voorgegaan.

Gratis Aanmelden Gitaartabs

Comments Eric Clapton - Layla (unplugged) - tab

JanH

JanH 2018-08-24



petjepeter

Petjepeter 2010-10-13

moeilijk maar te doen

 


Harriėt

Harriėt 2008-12-27