• Streaming gitaar liedjes spelen
  • Leer gitaar spelen & gitaarlessen
  • 75.000 leden
hallo, dit is mijn eerste tab, dus er zouden fouten in kunnen zitten

2x intro:

e|---------------0--------------------------0----------------
B|-----------3-----3-------------------3-----3----0-------
G|-------4------------4------------2------------2----------
D|----5-------------------5-----0---------------------------
A|-------------------------------------------------------------
E|-------------------------------------------------------------


e|--------------0----------------------------0------------
B|----------3-----3-----------------3---------3---------
G|--------------------0----------2------2--------2------
D|------2----------------2---0-----------------------0--
A|---3-----------------------------------------------------
E|--------------------------
De rest van dit nummer alleen voor Gitaartabs leden! Maak gratis Gitaartabs account aan . 
Gitaar Tabs

Download, print en speel de Tab ♪ Eric Clapton - Wonderful Tonight

Meld je aan en print, download of speel binnen 15 sec mee Tab ♫ Eric Clapton - Wonderful Tonight.
Reeds 70.000 gitaristen zijn je voorgegaan.

Gratis Aanmelden Gitaartabs

Wat vind jij van deze song? Eric Clapton - Wonderful Tonight


Comments Eric Clapton - Wonderful Tonight - tab

pvandenbelt

Pvandenbelt 2009-05-07

well done!


Plaats opmerkingen e.o. suggestie voor Eric Clapton - Wonderful Tonight