• Streaming gitaar liedjes spelen
  • Leer gitaar spelen & gitaarlessen
  • 80.000 leden
intro|:bass
e|----8vv----------------7vv-----------------|
a|-------------------------------------------|
d|-------------------------------------------|
g|-------------------------------------------|
    I'm so tired of being here
 suppressed by all of my childish fears
 and if you have to leave
 I wish that you could just leave
 because your presence still lingers here
e|--7vv-----------------5vv------------------|
a|----------------------6vv------------------|
d|-------------------------------------------|
g|-------------------------------------------|
  and it won't leave me alone

e|--5----7v-------------------5--------------|
a|--6-------------------------6--------------|
d|-------8v----------------------------------|
g|-------------------------------------------|
   these wounds won't seem to heal
   this pain is just too real

e|-5-------7v-----------------3vvv------------|
a|-6------------------------------------------|
d|---------8v-----------------4vvv------------|
g|--------------------------------------------|
   there's just too much that time cannot erase
e|----------1v--------3---------7----------------------|
a|-0v-----------------5-------------------------0v-----|
d|-6--------3v------------------0v--------------6------|
g|-----------------------------------------------------|
   When you cried I'd wipe away all of your tears

e|-----------1--------3------------7-------------------|
a|--------------------5-------------------------0v-----|
d|------
>> Registreer, speel & download <<
Meld nu aan en speel de rest van Evanescence - My Immortal

>> Registreer, speel & download <<
-----3---------------------0v-----------6------|
g|-----------------------------------------------------|
    And I've held your hand through all of these years
e|----------1v---------------3v-------8vv---7vv--------|
a|-----------------------------------------------------|
d|----------3v---------------5v------------------------|
G|-----------------------------------------------------|
   but you still have all of me

         same of the 1 verse
e|----8vv----------------7vv---------------------------|
a|-----------------------------------------------------|
d|-----------------------------------------------------|
g|-----------------------------------------------------|
You used to captivate me by your resonating light
but now I'm bound by the life you left behind
Your face it haunts my once pleasant dreams
your voice it chased away all the sanity in me




e|--1v------------0------------7v-----------------1v---|
a|----------------0------------------------------------|
d|--3v------------6------------0v-----------------3v---|
G|-----------------------------------------------------|
    I've tried so hard to tell myself that you're gone

e|----0-------------------7-------0v-------1-----3------0-1-3-7v---|
a|----0---------------------------5v-------------5------0---5------|
d|----6-------------------0-------4v-------3------------6-3---8v---|
G|-----------------------------------------------------------------|
  but though you're still with me,I've been alone of all along

More info

Comments Evanescence - My Immortal - tab

XxPriyaxX

XxPriyaxX 2010-01-24

ja wat betekent die V"tjes ??? ik ben een beginner dus geen cleu ofzo anyone?


ArjanAJ

ArjanAJ 2008-09-19

ik begrijp er niet veel van, weet ook niet wat 'v' is, zag ik niet bij de tekenuitleg?