• Streaming gitaar liedjes spelen
  • Leer gitaar spelen & gitaarlessen
  • 75.000 leden
Still Got the Blues                           
Gary Moore

                                                        

E||-----------|----------------------------------------|
B||-----15-17-|--17b--------17b-17-15~-----15\---13-15-|
G||--14-------|----------------------------------------|
D||-----------|----------------------------------------|
A||-----------|----------------------------------------|
E||-----------|----------------------------------------|
                                    

----------------------------------------|
--15b--------15r--13~---13\----10-12-13-|
----------------------------------------|
----------------------------------------|
----------------------------------------|
----------------------------------------|
                                                                       

---------------------------------------|------------------------------|
--13b-------13r-13-12~---------10------|------------------------------|
-----------------------------x-----12--|--12b-----------12\-----------|
---------------------------------------|------------------------------|
---------------------------------------|------------------------------|
---------------------------------------|------------------------------|
                                                  
                                                             
--------------------------|--------------------------------------|
--------------------------|--------------------------------------|
--------------------------|--------------------------------------|
--------------------------|--------------------------------------|
--------------------------|--x--x--2--2--2--2--2--2--2--2--2--2--|
--------------------------|--------0--0--0--0--0--0--0--0--0--0--|
                                                          

---------------7------------|---------------5------------|
---------------8------------|---------------5------------|
---------------7------------|---------------5------------|
---------------9------------|---------------4------------|
--7------------7------------|--7------------5------------|
--5-------------------------|--5-------------------------|

                                                          

--8-------------------------|----------------------------|
--8------------8------------|----------------------------|
--8------------7------------|----------------------------|
--7------------6------------|----------------------------|
--8------------7------------|--7------------7------------|
----------------------------|--5------------5------------|
                                                            

--------------------------3--|--3~---------------------5---|
----------------------3/5----|---------------------------8-|
-----------------------------|-----------------------------|
-----------------------------|-----------------------------|
-----------------------------|-----------------------------|
-----------------------------|-----------------------------|

                                                             
---------------------------------|----------------------------|
---------------------------------|------------------------8b--|
--7r-5--------------------7b7p5--|--------------------------7r|
-------7~--------------6---------|----------------------------|
---------------------------------|----------------------------|
---------------------------------|----------------------------|
                                                          

----------------------------|------------------------------|
----------------------------|----------------------10--13--|
---5------------------------|------------------------------|
-----7~---------------------|------------------------------|
----------------------------|------------------------------|
----------------------------|------------------------------|
                                                                  

-----------------------10------------|----------------------------|
--15b---------------------13p10---13-|------------15b-------------|
-------------------------------------|----------------------------|
-------------------------------------|----------------------------|
-------------------------------------|----------------------------|
-------------------------------------|----------------------------|
                                                    
                                                         
--------------------------|----------------------------------|
--------------------------|----------------------------------|
--------------------------|--------7r-7p5--------------------|
--------------------------|---------------7-7-7~---7\--------|
--------------------------|----------------------------------|
--------------------------|----------------------------------|
                                                          
--------------------------|------------------------------|
--------------------------|--------------------13b----10-|
--------------------------|------------------------------|
--------------------------|------------------------------|
--------------------------|------------------------------|
--------------------------|------------------------------|
                                                         

------------------------------|--------------------------|
--13r---13b-------------------|--------------------------|
------------------------------|--------------------------|
------------------------------|--------------------------|
------------------------------|--------------------------|
------------------------------|--------------------------|
                                                                         
--------------------------------|------------------------------------------|
--------------------------15-17-|--17b--------17b-17-15~-----15\-----13-15-|
-----------------------14-------|---------------------------------12-------|
--------------------------------|------------------------------------------|
--------------------------------|------------------------------------------|
--------------------------------|------------------------------------------|
                                                                                
----------------------------------------|--------------------------------------|
--15b--------15r--13~---13\----10-12-13-|--13b-------13r---12~-----------10----|
----------------------------------------|----------------------------12-----12-|
----------------------------------------|--------------------------------------|
----------------------------------------|--------------------------------------|
----------------------------------------|--------------------------------------|
                                 
--------------------------------------|
--10~-----12------12b-----------15-17-|
-----------------------------14-------|
--------------------------------------|
--------------------------------------|
--------------------------------------|
                                         
--------------15--------------------------|
--17b-------------15b-15~---15\-----13-15-|
---------------------------------12-------|
------------------------------------------|
------------------------------------------|
------------------------------------------|
                                            
--------------------------------------------|
--15b-------16-15b15-13~----13\----10-12-13-|
-------------------------------------
De rest van dit nummer alleen voor Gitaartabs leden! Maak gratis Gitaartabs account aan . 
Gitaar Tabs

Download, print en speel de Tab ♪ Gary Moore - Still Got The Blues Tab

Meld je aan en print, download of speel binnen 15 sec mee Tab ♫ Gary Moore - Still Got The Blues Tab.
Reeds 70.000 gitaristen zijn je voorgegaan.

Gratis Aanmelden Gitaartabs

Artiesten

Gary Moore

Song information

Naam: Still Got The Blues Tab
Album:
Notatie: Tab (TAB)
Category: Blues
Niveau: 2/10

Statistiek

Downloads: 16.347
Commentaren: 2 Comments

Credits

Geplaat door: Johan.bielen
Geschreven door: Gitaartabs
Datum: 2008-03-16

Comments Gary Moore - Still Got The Blues Tab - tab

kenworth

Kenworth 2011-05-10

wordt een beetje eentonig he !  ;-)

Weer geen tekst


hamster

Hamster 2010-02-26

o