• Streaming gitaar liedjes spelen
  • Leer gitaar spelen & gitaarlessen
  • 80.000 leden
Long Blond Animal 


"Yeah I got a woman mean as she can be,
sometimes I think she's almost as mean as me____
Yeah, Long Blond Animal"

(D-Tuning)
Intro:

e|-----------------------------------------------|--------------------------------
B|-----------------------------------------------|--------------------------------
G|-----------------------------------------------|--------------------------------
D|-----------------------------------------------|--------------------------------
A|-----------2--------0---------3--------3-------|--5-----------2--------0--------
E|--2--3--4-----4--2------0--0-----0--0-----0--0-|-----2--3--4-----4--2-----------

Play 3x
e|-------------------------|-------------------------|----------------------------
B|-------------------------|-------------------------|----------------------------
G|-------------------------|-------------------------|----------------------------
D|-------------------------|-------------------------|----------------------------
A|--------3--------3-------|--5-----------2--------0-|--5--5--5--5--5--5--5--5----
E|--0--0-----0--0-----0--0-|-----2--3--4-----4--2----|--0--0--0--0--0--0--0--0----

Play 3x
e|-------------------------|-------------------------|----------------------------
B|-------------------------|-------------------------|----------------------------
G|-------------------------|-------------------------|----------------------------
D|-------------------------|-------------------------|----------------------------
A|--5-----------2--------5-|-5--5--5--5--5--5--5--5--|--5-----------2--------0----
E|--0--2--3--4-----4--2----|-0--0--0--0--0--0--0--0--|--0--2--3--4-----4--2-------

Verse 1
e|-------------------------------------------------------------------------------
B|-------------------------------------------------------------------------------
G|-------------------------------------------------------------------------------
D|-------------------------------------------------------------------------------
A|-5-5-5-5-5-5-5-5--5-------2-----0---5--5--5--5--5--5--5--5--5-------2-----0----
E|-0-0-0-0-0-0-0-0----2-3-4---4-2-----0--0--0--0--0--0--0--0----2-3-4---4-2------
    Get out of my parlour won't you       Get out of   my   life
    Put on that cra- zy  raincoat         You're gonna need it tonight

e|-------------------------------------------------------------------------------
B|-------------------------------------------------------------------------------
G|-------------------------------------------------------------------------------
D|-------------------------------------------------------------------------------
A|-3-3-3-3-3-3-3-3--3-------2-----0---3--3--3--3--3--3--3--3--3-------2-----0----
E|-0-0-0-0-0-0-0-0----2-3-4---4-2-----0--0--0--0--0--0--0--0----2-3-4---4-2------
    Get out of my parlour before I          cut you with     a knife     I

e|---------------------------------------------------------------0--0--0--0--0--0-
B|---------------------------------------------------------------0--0--0--0--0--0-
G|---------------------------------------------------------------0--0--0--0--0--0-
D|---------------------------------------------------------------0--0--0--0--0--0-
A|-3-3-3-3-3-3-3-3--3-------2-----0---3--3--3--3--3--3--3--3--3--5--5--5--5--5--5-
E|-0-0-0-0-0-0-0-0----2-3-4---4-2-----0--0--0--0--0--0--0--0----------------------
      Don't want  your disease   I         Don't need that    silly  jive

Refrain:
A                 D
I was an innocent by-stander
A                       D
I was the middle of the roadman for you
G                      D
Then you took me for a ride now baby
G                 D
Showed me all the things you could do
A                      D
Always listened to the good looking lady
A                 D
A mistake I won't make no more
G
Cause you might be a good looking lady
           A
But you're rotten to the core

e|-------------------------------------------------------------------------------
B|-------------------------------------------------------------------------------
G|-------------------------------------------------------------------------------
D|-------------------------------------------------------------------------------
A|----------2-------0--------3---------3--------5-----------2--------0-----------
E|--2--3--4---4--2-----0--0-----0---0-----0--0-----2--3--4-----4--2--------------
    You're all fucked up

e|------------------------------------------------------------
B|------------------------------------------------------------
G|------------------------------------------------------------
D|------------------------------------------------------------
A|--------3---------3--------5-----------2--------0-----------
E|--0--0-----0---0-----0--0-----2--3--4-----4--2--------------

Verse 2 (same tab as verse 1)

I've been under your influence
Under your spell too long
Now people keep me at a distance
Everything I do is wrong
I 
>> Registreer, speel & download <<
Meld nu aan en speel de rest van Golden Earring - Long Blond Animal

>> Registreer, speel & download <<
saw my brain's desintegrating
Devil's singing my song baby
This cannot continue
This cannot go on

Chorus

e|-------------------------------------------------------------------------------
B|-------------------------------------------------------------------------------
G|-------------------------------------------------------------------------------
D|------------------------------------------------9---9---9---9----7--7----7-----
A|-9-----9-----9-----9--10---10---12---12--0----0---0---0---0---0-------0-----0--
E|----0-----0-----0--------0----0----0-------------------------------------------

e|------------------------------------------------------0--0-----0--0-----0--0----
B|------------------------------------------------------0--0-----0--0-----0--0----
G|------------------------------------------------------0--0-----0--0-----0--0----
D|-11--11------11--------12------14--14-----0-----------0--0-----0--0-----0--0----
A|-----------0------0--0-------0----------0-----------0--5--5-----5--5-----5--5---
E|---------------------------------------------0--0-----------0--------0-------0-0

Intermezzo:
D string 4 5 7 9 7 (+ A string)
G string 6 7 9 (D) (+ D string)
D string 4 5 7 9 7  5 4 2 0

(Spoken) Well everybody knows that I go for those long legged blond haired girls and they always take real good care of me too, you know.

e|--------------------------------------------------------------------------------
B|--------------------------------------------------------------------------------
G|--------------------------------------------------------------------------------
D|--------------------------------------9-----9-----9-----7-----7-----7-----------
A|--9--9--9--------10---10---12---12-------0-----0-----0-----0-----0-----0--------
E|-----------0--0-----0----0----0----7--------------------------------------------
I got myself this brand new long blond animal now and every morning when I wake up and I see that beautiful blond hair lying on the pillow next to me I just can't stop. 

e|--------------------------------------------------------------------------------
B|--------------------------------------------------------------------------------
G|--------------------------------------------------------------------------------
D|-----5-----5------5--4--4-----2--2-----2----------------------------------------
A|--0-----0------0-----------0--------0------------0--------0---------------------
E|------------------------------------------0---3-----0--3-----3--2--0------------
I gotta do it, I gotta do it, I gotta do it right away. You know what I mean? I gotta sing, I go:

(play 3x)
e|--------------------------------------------------------------------------------
B|--------------------------------------------------------------------------------
G|--------------------------------------------------------------------------------
D|-------------------------------------------9-9-9-9-9-9-9-7-7--7-7-7-7-7-7-7-7---
A|-9-9-9-9-9-9-9-9--10-10-10-10-12-12-12--0--0-0-0-0-0-0-0-0-0--0-0-0-0-0-0-0-0---
E|-0-0-0-0-0-0-0-0---0--0--0--0--0--0--0------------------------------------------
   Ah               Ah          Ah           Ah                 Ah

e|----------------------------------------------0-0--0-0-0-0-0-0--0-0-0-0-0-0-----
B|----------------------------------------------0-0--0-0-0-0-0-0--0-0-0-0-0-0-----
G|----------------------------------------------0-0--0-0-0-0-0-0--0-0-0-0-0-0-----
D|-11-11-11-11-11-11-11-11--12--12-12-12-14-14--0-0--0-0-0-0-0-0--0-0-0-0-0-0-----
A|--0--0--0--0--0--0--0--0---0---0--0--0--0--0-------0-0-0-0-0-0--0-0-0-0-0-0-----
E|---------------------------------------------------0-0-0-0-0-0--0-0-0-0-0-0-----
   Ah                       Ah           Ah     Ah__________________   I go

e|--------------------------------------------------------------------------------
B|--------------------------------------------------------------------------------
G|--------------------------------------------------------------------------------
D|-------------------------------------------9-9-9-9-9-9-9-7--7-7-7-7-7-7-7-7-----
A|-9-9-9-9-9-9-9-9--10-10-10-10-12-12-12-12--0-0-0-0-0-0-0-0--0-0-0-0-0-0-0-0-----
E|-0-0-0-0-0-0-0-0---0--0--0--0--0--0--0--0---------------------------------------
   Ah                Ah         Ah           Ah_______________________

e|--------------------------------------------------------------------------------
B|--------------------------------------------------------------------------------
G|--------------------------------------------------------------------------------
D|-5-5-5-5-5-5-5-5--4-4-4---2-2-2-2-----------------------------------------------
A|-0-0-0-0-0-0-0-0--0-0-0-0-0-0-0-0--------------------0--------------------------
E|------------------------------------0---3--3--0---3-----3--2--0-----------------
   Ah               Ah      Ah        Ah____________________  (I go)

Chorus

Chords:
   EADGBe
A: 7x7777
D: 050000
G: 555655

More info