• Streaming gitaar liedjes spelen
  • Leer gitaar spelen & gitaarlessen
  • 75.000 leden
Long Blond Animal 


"Yeah I got a woman mean as she can be,
sometimes I think she's almost as mean as me____
Yeah, Long Blond Animal"

(D-Tuning)
Intro:

e|-----------------------------------------------|--------------------------------
B|-----------------------------------------------|--------------------------------
G|-----------------------------------------------|--------------------------------
D|-----------------------------------------------|--------------------------------
A|-----------2--------0---------3--------3-------|--5-----------2--------0--------
E|--2--3--4-----4--2------0--0-----0--0-----0--0-|-----2--3--4-----4--2-----------

Play 3x
e|-------------------------|-------------------------|----------------------------
B|-------------------------|-------------------------|----------------------------
G|-------------------------|-------------------------|----------------------------
D|-------------------------|-------------------------|----------------------------
A|--------3--------3-------|--5-----------2--------0-|--5--5--5--5--5--5--5--5----
E|--0--0-----0--0-----0--0-|-----2--3--4-----4--2----|--0--0--0--0--0--0--0--0----

Play 3x
e|-------------------------|-------------------------|----------------------------
B|-------------------------|-------------------------|----------------------------
G|-------------------------|-------------------------|----------------------------
D|-------------------------|-------------------------|----------------------------
A|--5-----------2--------5-|-5--5--5--5--5--5--5--5--|--5-----------2--------0----
E|--0--2--3--4-----4--2----|-0--0--0--0--0--0--0--0--|--0--2--3--4-----4--2-------

Verse 1
e|-------------------------------------------------------------------------------
B|-------------------------------------------------------------------------------
G|-------------------------------------------------------------------------------
D|-------------------------------------------------------------------------------
A|-5-5-5-5-5-5-5-5--5-------2-----0---5--5--5--5--5--5--5--5--5-------2-----0----
E|-0-0-0-0-0-0-0-0----2-3-4---4-2-----0--0--0--0--0--0--0--0----2-3-4---4-2------
    Get out of my parlour won't you       Get out of   my   life
    Put on that cra- zy  raincoat         You're gonna need it tonight

e|-------------------------------------------------------------------------------
B|-------------------------------------------------------------------------------
G|-------------------------------------------------------------------------------
D|-------------------------------------------------------------------------------
A|-3-3-3-3-3-3-3-3--3-------2-----0---3--3--3--3--3--3--3--3--3-------2-----0----
E|-0-0-0-0-0-0-0-0----2-3-4---4-2-----0--0--0--0--0--0--0--0----2-3-4---4-2------
    Get out of my parlour before I          cut you with     a knife     I

e|---------------------------------------------------------------0--0--0--0--0--0-
B|---------------------------------------------------------------0--0--0--0--0--0-
G|---------------------------------------------------------------0--0--0--0--0--0-
D|---------------------------------------------------------------0--0--0--0--0--0-
A|-3-3-3-3-3-3-3-3--3-------2-----0---3--3--3--3--3--3--3--3--3--5--5--5--5--5--5-
E|-0-0-0-0-0-
De rest van dit nummer alleen voor Gitaartabs leden! Maak gratis Gitaartabs account aan . 
Gitaar Tabs

Download, print en speel de Tab ♪ Golden Earring - Long Blond Animal

Meld je aan en print, download of speel binnen 15 sec mee Tab ♫ Golden Earring - Long Blond Animal.
Reeds 70.000 gitaristen zijn je voorgegaan.

Gratis Aanmelden Gitaartabs