• Streaming gitaar liedjes spelen
  • Leer gitaar spelen & gitaarlessen
  • 80.000 leden
Sleepwalkin'


G* -3-
   -3-
   -0-
   -0-
   -x-
   -3-

Standard tuning.

Riff 1
1||----------------|----------------|
2||----------------|----------------|
3||----------------|----------------|
4||-------------5--|----------------|
5||-7-7-7-7-7-7---7|-7-7-7-7-7-7-5-7|
6||0-0-0-0-0-0-0--0|0-0-0-0-0-0-0--0|

Riff 2
1||---------------------|0---0---0-------|
2||---------------------|1---3---0-------|
3||---------------------|0---0---0-------|
4||---5-7-5h7p5-----2---|2---4---2-------|
5||5-7----------7-5-2---|3---5---2-------|
6||-----------------0---|--------0-------|

Riff 3
1||---------------------|8---10---12-----|  or |12---14---16------|
2||---------------------|8---10---12-----|     |13---15---17------|
3||---------------------|9---11---12-----|     |12---14---16------|
4||---5-7-5h7p5-----2---|----------------|     |------------------|
5||5-7----------7-5-2---|----------------|     |------------------|
6||-----------------0---|----------------|     |------------------|


Last night's blind date
Hit me like a handgranate 

Blew holes in my soul
I'm on a love crusade 

Wore my loves like a pair of gloves
But this time I'm going straight 

D                               C
'Cause I never felt this strange
D                                     C
I'm supposed to be skilled at the game
D                             C
So once again it goes to show
D       
>> Registreer, speel & download <<
Meld nu aan en speel de rest van Golden Earring - Sleepwalkin'

>> Registreer, speel & download <<
                         C
You'll fall into the trap of love
Before you know

1||------------------|
2||------------------|
3||---------0--0--0--|
4||2---2----2-s4-s2--|
5||2-2-2----3-s5-s3--|
6||0-3-0-------------|
Sleepwalkin', 

1||------------------|
2||------------------|
3||7-s9-s7-----------|
4||7-s9-s7---2---2---|
5||5-s7-s5---2-2-2---|
6||----------0-3-0---|
Don't panic, We are on the Titanic

1||------------------|
2||------------------|
3||---------0--0--0--|
4||2---2----2-s4-s2--|
5||2-2-2----3-s5-s3--|
6||0-3-0-------------|
Don't you try to call my bluff

1||------------------|
2||------------------|
3||7-s9-s7-----------|
4||7-s9-s7---2---2---|
5||5-s7-s5---2-2-2---|
6||----------0-3-0---|
Both eyes shut travels hard enough

Sleepwalkin', don't panic
We are on the Titanic

B5                 C5 
Across the brides, 'round the poop
A5             G*
A fire escape, won't hesitate

She's floating there
A living jewel
A gern that makes me lose my cool
It's no surpise, I'm paralyzed
This vision got me hypnotized
Remember your princely duty
Rescue that sleeply beauty 


1||------------------2--0--2--0--2--0--2--0--|
2||------------------3--0--3--0--3--0--3--0--|
3||------------------2--0--2--0--2--0--2--0--|
4||------------------0--2--0--2--0--2--0--2--|
5||-3-2-0-2-3-2-0-2-----2-----2-----2-----2--|
6||---------------------0-----0-----0-----0--|

Chorus riff during sax solo

More info