• Streaming gitaar liedjes spelen
  • Leer gitaar spelen & gitaarlessen
  • 75.000 leden
Nog 10 tab te gaan voor deze maand.
The devil made me

riff 1:
E --------------------------------------------------------
B --------------------------------------------------------
G --------------------------------------------------------
D ----------0^2--2-2-----0------------0^2--2-2-----0------
A ------0^2----------0^2---2------0^2----------0^2--------
E --0^3-----------------------0^3-------------------------

Aan het einde van het refrein wordt het volgende 'opmaatje' 
gespeeld:

riff 2:
E ---------------
B ---------------
G ---------------
D ---------------
A --2-3-5--------
E --------2-3-5--


Riff 1:
All set court's in session
This judge got no compassion
Witness show me your right hand
I swear nothin' but the truth now


C     D        C        D
I was allright till she came along
C     D        C        D       Em
I was allright then it all wen
De rest van dit nummer alleen voor Gitaartabs leden! Maak gratis Gitaartabs account aan . 
Gitaar Tabs

Download, print en speel de Tab ♪ Golden Earring - The Devil Made Me

Meld je aan en print, download of speel binnen 15 sec mee Tab ♫ Golden Earring - The Devil Made Me.
Reeds 70.000 gitaristen zijn je voorgegaan.

Gratis Aanmelden Gitaartabs

Wat vind jij van deze song? Golden Earring - The Devil Made Me

Comments Golden Earring - The Devil Made Me - tab

Plaats opmerkingen e.o. suggestie voor Golden Earring - The Devil Made Me