• Streaming gitaar liedjes spelen
  • Leer gitaar spelen & gitaarlessen
  • 75.000 leden
INTRO:

e-----1-----------5---------|
B----------3------------5---|
G---------------------------|
D---------------------------|
A---------------------------|
E---------------------------|


VERSE:

Play it with Chords


Dm       A#                F        C
  Do you know what's worth fighting for,
Dm          A#        F     C
  When it's not worth dying for?
Dm        A#        F      C
  Does it take your breath away
         A#                C
And you feel yourself suffocating?

Dm         A#         F        C
  Does the pain weigh out the pride?
Dm        A#          F        C
  And you look for a place to hide?
Dm        A#             F      C
  Did someone break your heart inside?
 A#
You're in ruins

CHORUS:

One, 21 guns
Lay down your arms
Give up the fight
One, 21 guns
Throw up your arms into the sky,
You and I


e-----|----------------------------------------    |       -------------|
B-----|----------------------------------------    |       -------------|
G--5--|----------77--5555--3333------55555555--    |       3333------5--|
D--5--|--33--22--77--5555--3333-3333-55555555-- x2 | then  3333-3333-5--|
A--3--|--33--33--55--3333--1111-3333-33333333--    |       1111-3333-3--|
E-----|--11--00-----------------1111-----------    |       -----1111----|

                                                            (You and I)


VERSE:

Dm          A#     F          C
  When you're at the end of the road
Dm        A#       F             C
  And you lost all sense of control
Dm        A#            F            C
 And your thoughts have taken their toll
         A#                              C
When your m
De rest van dit nummer alleen voor Gitaartabs leden! Maak gratis Gitaartabs account aan . 
Gitaar Tabs

Download, print en speel de Tab ♪ Green Day - 21 Guns

Meld je aan en print, download of speel binnen 15 sec mee Tab ♫ Green Day - 21 Guns.
Reeds 70.000 gitaristen zijn je voorgegaan.

Gratis Aanmelden Gitaartabs

Comments Green Day - 21 Guns - tab

110823

110823 2011-06-19

Ja duhu het is toch op akoestische gitaar ingespeeld!!! Haha zo'n grappige vraag heb ik nog nooit gehoord!!! DIe is goed zeg???

 Maar FF een tip voor de schrijver van dit stuk, je kunt er beter een overzicht van de akkorden bij zetten in tabformaat!!!


magic7girl

Magic7girl 2011-01-30

hoe speel je A#?


luc1998

Luc1998 2010-09-10

hoe ging die a# ook alweer?

enne moet er ergens een capo op of licht het aan mij?


TuKCY30

TuKCY30 2010-06-06

inderdaad, kan dit nummer ook op een akoestische gitaar gespeeld worden?


nort

Nort 2010-03-26

je kan beter als intro:

e--------------------------------------------------------------------------|
B------6---------------------9----------------------------------------------|
G------------------7------------------------8--------------------------------|
D--------------------------------------------------------------------------|
A------5--------------------7-----------------------------------------------|
E-----------------6------------------------7---------------------------------|

maar dat is maar een tip ;p


RINUSROBAARD

RINUSROBAARD 2010-03-21

heb je ook de bass hiervan????


Nico13

Nico13 2010-03-05

heej

 

kan iemand hem  voor mij uitschrijven met chords ?


gitaarbeun

Gitaarbeun 2010-01-24

ja doe ik wel


nathalieandmusic

Nathalieandmusic 2010-01-23

Kan je dit nummer op een akoestische gitaar spelen?