• Streaming gitaar liedjes spelen
  • Leer gitaar spelen & gitaarlessen
  • 75.000 leden
  A                         D
e|---------------------------------2-----------2-------|
B|-------2-----------2-----------3---3-------3---3-----|
G|-----2---2-------2---2-------2-------2---2-------2---|
D|---2-------2---2-------2---0-----------0-------------|
A|-0-----------0---------------------------------------|
E|-----------------------------------------------------|

Pre-Chorus:
(This dirty town, is burnin' down, in my dreams)
   Fm                 E             D                         
e|------------------------------------------------------------|
B|---------11---------------9------/7-----7-----------7-------|
G|------10----10----------9---9----/7---7---7-------7---7-----|
D|---10----------10-----9-------9-----7-------7---7-------7---|
A
De rest van dit nummer alleen voor Gitaartabs leden! Maak gratis Gitaartabs account aan . 
Gitaar Tabs

Download, print en speel de Tab ♪ Green Day - Are We The Waiting

Meld je aan en print, download of speel binnen 15 sec mee Tab ♫ Green Day - Are We The Waiting.
Reeds 70.000 gitaristen zijn je voorgegaan.

Gratis Aanmelden Gitaartabs