• Streaming gitaar liedjes spelen
  • Leer gitaar spelen & gitaarlessen
  • 80.000 leden
Kevin Bruin

Greenday - Boulevard of Broken Dreams

Intro:
|---------------------------|
|---------------------------|
|----------------8~---------|
|--3~-----6~-----8~-----8~--|
|--3~-----6~-----6~-----8~--|
|--1~-----4~------------6~--|

Verse 1:                                                 
|-----------------------------------|
|-----------------------------------|
|------------------8-8-8-8----------|  
|--3-3-3-3-6-6-6-6-8-8-8-8-8-8-8-8--|  3x
|--3-3-3-3-6-6-6-6-6-6-6-6-8-8-8-8--|
|--1-1-1-1-4-4-4-4---------6-6-6-6--|

|-----------------------------------|
|--8/9-----13/11---8/9-----9/6------|
|-----------------------------------|  
|-----------------------------------|  
|-----------------------------------|
|-----------------------------------|

|-----------------------------------|
|-----------------------------------|
|------------------8-8-8-8----------|  
|--3-3-3-3-6-6-6-6-8-8-8-8-8-8-8-8--| 3x  
|--3-3-3-3-6-6-6-6-6-6-6-6-8-8-8-8--|
|--1-1-1-1-4-4-4-4---------6-6-6-6--|

|-----------------------------------|
|--8/9-----13/11---8/9--------------|
|-----------------------------------|  
|-----------------------------------|  
|-----------------------------------|
|-----------------------------------|

Chorus 1:
|-----------------------------------|
|-----------------------------------|
|--6-6-6-6---------8-8-8-8----------|
|--6-6-6-6-6-6-6-6-8-8-8-8-3-3-3-3--| 3x
|--4-4-4-4-6-6-6-6-6-6-6-6-3-3-3-3--|
|----------4-4-4-4---------1-1-1-1--|
  
|-----------------------------|
|-----------------------------|
|--6-6-6-6---------5-5-5-5-5--|
|--6-6-6-6-6-6-6-6-5-5-5-5-5--|
|--4-4-4-4-6-6-6-6-3-3-3-3-3--|
|----------4-4-4-4------------|

Verse 2 
|-----------------------------------|
|-----------------------------------|
|------------------8-8-8-8----------|  
|--3-3-3-3-6-6-6-6-8-8-8-8-8-8-8-8--|  5x
|--3-3-3-3-6-6-6-6-6-6-6-6-8-8-8-8--|
|--1-1-1-1-4-4-4-4---------6-6-6-6--|
                                 
|-----------------------------------|
|--8/9-----13/11---8/9--------------|
|-----------------------------------|  
|-----------------------------------|  
|-----------------------------------|
|-----------------------------------|

|-----------------------------------|
|-----------------------------------|
|------------------8-8-8-8----------|  
|--3-3-3-3-6-6-6-6-8-8-8-8-8-8-8-8--|  3x
|--3-3-3-3-6-6-6-6-6-6-6-6-8-8-8-8--|
|--1-1-1-1-4-4-4-4---------6-6-6-6--|

|-----------------------------------|
|--8/9-----13/11---8/9--------------|
|-----------------------------------|  
|-----------------------------------|  
|-----------------------------------|
|-----------------------------------|

|-----------------------------------|
|-----------------------------------|
|------------------8-8-8-8-------5--|  
|--3-3-3-3-6-6-6-6-8-8-8-8-8-8-8-5--|  
|--3-3-3-3-6-6-6-6-6-6-6-6-8-8-8-3--|
|--1-1-1-1-4-4-4-4---------6-6-6----|

|-----------------------------------|
|--8/9-----13/11---8/9--------------|
|-----------------------------------|  
|-----------------------------------|  
|-----------------------------------|
|-----------------------------------|

Chorus 2:                                                     
|-----------------------------------|
|-----------------------------------|
|--6-6-6-6---------8-8-8-8----------|
|--6-6-6-6-6-6-6-6-8-8-8-8-3-3-3-3--| 3x
|--4-4-4-4-6-6-6-6-6-6-6-6-3-3-3-3--|
|----------4-4-4-4---------1-1-1-1--|
 
|-----------------------------|
|-----------------------------|
|--6-6-6-6---------5-5-5-5-5--|
|--6-6-6-6-6-6-6-6-5-5-5-5-5--|
|--4-4-4-4-6-6-6-6-3-3-3-3-3--|
|----------4-4-4-4------------|

Bridge:                                                                     
|-----------------------------------|
|-----------------------------------|
|------------------8-8-8-8----------|  
|--3-3-3-3-6-6-6-6-8-8-8-8-8-8-8-8--|  2x
|--3-3-3-3-6-6-6-6-6-6-6
>> Registreer, speel & download <<
Meld nu aan en speel de rest van Green Day - Boulevard Of Broken Dreams

>> Registreer, speel & download <<
-6-8-8-8-8--|
|--1-1-1-1-4-4-4-4---------6-6-6-6--|

Solo:                                                
|-----------------------------------|
|-----------------------------------|
|--6-6-6-6---------8-8-8-8----------|
|--6-6-6-6-6-6-6-6-8-8-8-8-3-3-3-3--|
|--4-4-4-4-6-6-6-6-6-6-6-6-3-3-3-3--|
|----------4-4-4-4---------1-1-1-1--|
                                  
|-----------------------------------|
|--6-----8/9-----13/11---8/9---9----|
|-----------------------------------|  
|-----------------------------------|  
|-----------------------------------|
|-----------------------------------|
  
|-----------------------------------|
|-----------------------------------|
|--6-6-6-6---------8-8-8-8----------|
|--6-6-6-6-6-6-6-6-8-8-8-8-3-3-3-3--|
|--4-4-4-4-6-6-6-6-6-6-6-6-3-3-3-3--|
|----------4-4-4-4---------1-1-1-1--|
                              
|-----------------------------------|
|--6-----8/9-----13/11---8/9---9----|
|-----------------------------------|  
|-----------------------------------|  
|-----------------------------------|
|-----------------------------------|

|-----------------------------------|
|-----------------------------------|
|--6-6-------------8-8-8-8----------|
|--6-6-----6-6-----8-8-8-8-3-3-3-3--|
|--4-4-----6-6-----6-6-6-6-3-3-3-3--|
|----------4-4-------------1-1-1-1--|

|-----------------------------------|
|--6-----8/9-----13/11---8/9---9----|
|-----------------------------------|  
|-----------------------------------|  
|-----------------------------------|
|-----------------------------------|

|---------------------------------------------------|
|---------------------------------------------------|
|--6-6-------------5-5-5-5-5-5-5-5-5-5-5-5-5-5-5-5--|
|--6-6-----6-6-----5-5-5-5-5-5-5-5-5-5-5-5-5-5-5-5--|
|--4-4-----6-6-----3-3-3-3-3-3-3-3-3-3-3-3-3-3-3-3--|
|----------4-4--------------------------------------|

|---------------------------------------------------|
|--6-----8/9----11/13-13-13-13-13-13-13-13-13-13-13-|
|---------------------------------------------------|  
|---------------------------------------------------|  
|---------------------------------------------------|
|---------------------------------------------------|

Verse 3   
|-----------------------------------|
|-----------------------------------|
|------------------8-8-8-8----------|  
|--3-3-3-3-6-6-6-6-8-8-8-8-8-8-8-8--|  
|--3-3-3-3-6-6-6-6-6-6-6-6-8-8-8-8--|
|--1-1-1-1-4-4-4-4---------6-6-6-6--|

|-----------------------------------|
|-----------------------------------|
|------------------8-8-8-8-------5--|  
|--3-3-3-3-6-6-6-6-8-8-8-8-8-8-8-5--|  
|--3-3-3-3-6-6-6-6-6-6-6-6-8-8-8-3--|
|--1-1-1-1-4-4-4-4---------6-6-6----|

Chorus 3:                                                                     
|-----------------------------------|
|-----------------------------------|
|--6-6-6-6---------8-8-8-8----------|
|--6-6-6-6-6-6-6-6-8-8-8-8-3-3-3-3--| 3x
|--4-4-4-4-6-6-6-6-6-6-6-6-3-3-3-3--|
|----------4-4-4-4---------1-1-1-1--|
 
|---------------------------------------------------|
|---------------------------------------------------|
|--6-6-6-6---------5-5-5-5-5-5-5-5-5-5-5-5-5-5-5-5--|
|--6-6-6-6-6-6-6-6-5-5-5-5-5-5-5-5-5-5-5-5-5-5-5-5--|
|--4-4-4-4-6-6-6-6-3-3-3-3-3-3-3-3-3-3-3-3-3-3-3-3--|
|----------4-4-4-4----------------------------------|

Outro:
|---------------------------------------------|
|---------------------------------------------|
|---------6--6-6-8--8-8-7--7-7----------------| 3x
|--3--3-3-6--6-6-8--8-8-7--7-7-6--6-6-2--2-2--|
|--3--3-3-4--4-4-6--6-6-5--5-5-6--6-6-2--2-2--|
|--1--1-1----------------------4--4-4-0--0-0--|

|---------------------------------------|
|---------------------------------------|
|---------6--6-6-8--8-8-7--7-7----------|
|--3--3-3-6--6-6-8--8-8-7--7-7-6-6-2-2--|
|--3--3-3-4--4-4-6--6-6-5--5-5-6-6-2-2--|
|--1--1-1----------------------4-4-0-0--|


More info

Comments Green Day - Boulevard Of Broken Dreams - tab

tvh1997

Tvh1997 2010-09-22

te gek is de besten site  die ik  ken


haanke

Haanke 2010-04-29

kan iemand me uitleggen hoe ik dit moet lezen

alvast bedankt


olkomer

Olkomer 2010-02-09

cool thx


lisajn

Lisajn 2009-07-08

Heej als je dit liedje speelt moet je je capo op 1 zetten !Lachen


Gr. Kus


christian_111

Christian_111 2008-11-01

ja Lachebek


gitaarhier

Gitaarhier 2008-02-11

leuk liedje Grijns