• Streaming gitaar liedjes spelen
  • Leer gitaar spelen & gitaarlessen
  • 75.000 leden
Kevin Bruin

Greenday - Boulevard of Broken Dreams

Intro:
|---------------------------|
|---------------------------|
|----------------8~---------|
|--3~-----6~-----8~-----8~--|
|--3~-----6~-----6~-----8~--|
|--1~-----4~------------6~--|

Verse 1:                                                 
|-----------------------------------|
|-----------------------------------|
|------------------8-8-8-8----------|  
|--3-3-3-3-6-6-6-6-8-8-8-8-8-8-8-8--|  3x
|--3-3-3-3-6-6-6-6-6-6-6-6-8-8-8-8--|
|--1-1-1-1-4-4-4-4---------6-6-6-6--|

|-----------------------------------|
|--8/9-----13/11---8/9-----9/6------|
|-----------------------------------|  
|-----------------------------------|  
|-----------------------------------|
|-----------------------------------|

|-----------------------------------|
|-----------------------------------|
|------------------8-8-8-8----------|  
|--3-3-3-3-6-6-6-6-8-8-8-8-8-8-8-8--| 3x  
|--3-3-3-3-6-6-6-6-6-6-6-6-8-8-8-8--|
|--1-1-1-1-4-4-4-4---------6-6-6-6--|

|-----------------------------------|
|--8/9-----13/11---8/9--------------|
|-----------------------------------|  
|-----------------------------------|  
|-----------------------------------|
|-----------------------------------|

Chorus 1:
|-----------------------------------|
|-----------------------------------|
|--6-6-6-6---------8-8-8-8----------|
|--6-6-6-6-6-6-6-6-8-8-8-8-3-3-3-3--| 3x
|--4-4-4-4-6-6-6-6-6-6-6-6-3-3-3-3--|
|----------4-4-4-4---------1-1-1-1--|
  
|-----------------------------|
|-----------------------------|
|--6-6-6-6---------5-5-5-5-5--|
|--6-6-6-6-6-6-6-6-5-5-5-5-5--|
|--4-4-4-4-6-6-6-6-3-3-3-3-3--|
|----------4-4-4-4------------|

Verse 2 
|-----------------------------------|
|-----------------------------------|
|------------------8-8-8-8----------|  
|--3-3-3-3-6-6-6-6-8-8-8-8-8-8-8-8--|  5x
|--3-3-3-3-6-6-6-6-6-6-6-6-8-8-8-8--|
|--1-1-1-1-4-4-4-4---------6-6-6-6--|
                                 
|-----------------------------------|
|--8/9-----13/11---8/9--------------|
|-----------------------------------|  
|-----------------------------------|  
|-----------------------------------|
|-----------------------------------|

|-----------------------------------|
|-----------------------------------|
|------------------8-8-8-8----------|  
|--3-3-3-3-6-6-6-6-8-8-8-8-8-8-8-8--|  3x
|--3-3-3-3-6-6-6-6-6-6-6-6-8-8-8-8--|
|--1-1-1-1-4-4-4-4---------6-6-6-6--|

|-----------------------------------|
|--8/9-----13/11---8/9--------------|
|-----------------------------------|  
|-----------------------------------|  
De rest van dit nummer alleen voor Gitaartabs leden! Maak gratis Gitaartabs account aan . 
Gitaar Tabs

Download, print en speel de Tab ♪ Green Day - Boulevard Of Broken Dreams

Meld je aan en print, download of speel binnen 15 sec mee Tab ♫ Green Day - Boulevard Of Broken Dreams.
Reeds 70.000 gitaristen zijn je voorgegaan.

Gratis Aanmelden Gitaartabs

Artiesten

Green Day

Song information

Naam: Boulevard Of Broken Dreams
Album:
Notatie: Tab (TAB)
Category: Punk
Niveau: 2/10

Statistiek

Downloads: 17.927
Commentaren: 6 Comments

Credits

Geplaat door: Gilerakevie
Geschreven door: Gilerakevie
Datum: 2007-10-05

Comments Green Day - Boulevard Of Broken Dreams - tab

tvh1997

Tvh1997 2010-09-22

te gek is de besten site  die ik  ken


haanke

Haanke 2010-04-29

kan iemand me uitleggen hoe ik dit moet lezen

alvast bedankt


olkomer

Olkomer 2010-02-09

cool thx


lisajn

Lisajn 2009-07-08

Heej als je dit liedje speelt moet je je capo op 1 zetten !Lachen


Gr. Kus


christian_111

Christian_111 2008-11-01

ja Lachebek


gitaarhier

Gitaarhier 2008-02-11

leuk liedje Grijns