• Streaming gitaar liedjes spelen
  • Leer gitaar spelen & gitaarlessen
  • 75.000 leden
Intro:
e|--------------------------------------------------------------------------|
B|--------------------------------------------------------------------------|
G|----------------9-99----------------9-99----------------9-99--------------|
D|--4-4-444--999--9-99--4-4-444--999--9-99--4-4-444--999--9-99--------------|
A|--4-4-444--999--7-77--4-4-444--999--7-77--4-4-444--999--7-77--------------|
E|--2-2-222--777--------2-2-222--777--------2-2-222--777--------------------|

e|--------------------------------------------------------------------------|
B|--------------------------------------------------------------------------|
G|--6666666666666666--------------------------------------------------------|
D|--6666666666666666--2-2-4~----2-2-4\--------------------------------------|
A|--4444444444444444--2-2-4~----2-2-4\--------------------------------------|
E|--------------------0-0-2~----0-0-2\--------------------------------------|

Bass/ Guitar:
e|--------------------------------------------------------------------------|
B|--------------------------------------------------------------------------|
G|------------------------------------------------------------6-6-6---------|
D|-----------------------------------------------444~--2-2-2--6-6-6---------|
A|--9999999999999999-77777777-9999999999999999---444~--2-2-2--4-4-4---------|
E|-----------------------------------------------222~--0-0-0----------------|

Verse:
e|--------------------------------------------------------------------------|
B|--------------------------------------------------------------------------|
G|------------------------------------------------------------6-6-666-------|
D|--4-4-444-4-4-444-2-2-222-4-4-444--4-4-444-4-4-444--2-2-222-6-6-666--(x3)-|
A|--4-4-444-4-4-444-2-2-222-4-4-444--4-4-444-4-4-444--2-2-222-4-4-444-------|
E|--2-2-222-2-2-222-0-0-000-2-2-222--2-2-222-2-2-222--0-0-000---------------|

e|--------------------------------------------------------------------------|
B|--------------------------------------------------------------------------|
G|----------------9-99----------------9-99----------------9-99--------------|
D|--4-4-444--999--x-xx--4-4-444--999--x-xx--4-4-444--999--x-xx--(x3)--------|
A|--4-4-444--xxx--7-77--4-4-444--xxx--7-77--4-4-444--xxx--7-77--------------|
E|--2-2-222--777--------2-2-222--777--------2-2-222--777--------------------|

e|--------------------------------------------------------------------------|
B|---------------------
De rest van dit nummer alleen voor Gitaartabs leden! Maak gratis Gitaartabs account aan . 
Gitaar Tabs

Download, print en speel de Tab ♪ Green Day - Cigarettes And Valentines

Meld je aan en print, download of speel binnen 15 sec mee Tab ♫ Green Day - Cigarettes And Valentines.
Reeds 70.000 gitaristen zijn je voorgegaan.

Gratis Aanmelden Gitaartabs

Wat vind jij van deze song? Green Day - Cigarettes And Valentines


Plaats opmerkingen e.o. suggestie voor Green Day - Cigarettes And Valentines