• Streaming gitaar liedjes spelen
  • Leer gitaar spelen & gitaarlessen
  • 75.000 leden
Verse
e|---------------------------------------------------------------------|
B|---------------------------------------------------------------------|
G|---------------------------------------------------------------------|
D|-99-X-33-X-66-X-5555-------------------------------------------------|
A|-99-X-33-X-66-X-5555-------------------------------------------------|
E|-77-X-55-X-44-X-3333-------------------------------------------------|

Chorus:
e|---------------------------------------------------------------------|
B|---------------------------------------------------------------------|
G|---------------------------------------------------------------------|
D|-2222222--4444444-99-X-77-X-66-X-5555--2222222-4444------------------|
A|-2222222--4444444-99-X-77-X-66-X-5555--2222222-4444------------------|
E|-0000000--2222222-77-X-55-X-44-X-3333--0000000-2222------------------|

Solo:
e|-----------------------------------------------------------------------------|
B|-----------------------------------------------------------------------------|
G|-4444444--7777777--4444444-------------------4444444--7777777--9999910101010-|
D|-4444444--7777777--4444444--5555555-4444444--4444444--7777777--9999910101010-|
A|-2222222--5555555--2222222--5555555-4444444--222222
De rest van dit nummer alleen voor Gitaartabs leden! Maak gratis Gitaartabs account aan . 
Gitaar Tabs

Download, print en speel de Tab ♪ Green Day - Hitchin A Ride

Meld je aan en print, download of speel binnen 15 sec mee Tab ♫ Green Day - Hitchin A Ride.
Reeds 70.000 gitaristen zijn je voorgegaan.

Gratis Aanmelden Gitaartabs