• Streaming gitaar liedjes spelen
  • Leer gitaar spelen & gitaarlessen
  • 75.000 leden
Holiday:


e|--------------------|
B|--------------------|
G|-10---6----13---8---|
D|-10---6----13---8---| 
A|-8----4----11---6---|
E|--------------------|

Main Riff:
   F5  C#5 G#5 D#5 
e|-----------------|
B|-----------------|
G|-10--6-------8---|
D|-10--6---6---8---|
A|-8---4---6---6---|
E|---------4-------|

Verse:
   F5  C#5 G#5 D#5    F5  C#5 G#5 C5    F5  C#5 G#5 D#5  C5
e|-----------------------------------------------------------|
B|-----------------------------------------------------------|
G|-10--6-------8------10--6-------5------10--6-------8---5---|
D|-10--6---6---8------10--6---6---5------10--6---6---8---5---|
A|-8---4---6---6------8---4---6---3------8---4---6---6---3---|
E|---------4------------------4------------------4-----------|

Chorus:
   F5     C#5    G#5    D#5    F5     C#5    G#5    C5  
e|------------------------------------------------------|
B|------------------------------------------------------|
G|--------6-------------8-------------6-------------5---|
D|-3------6------6------8------3------6------6------5---|
A|-3------4------6------6------3------4------6------3---|
E|-1-------------4-------------1-------------4----------|

Bridge:
   F5  G#5 C# A# D# F    F5   G# D# C  F   
De rest van dit nummer alleen voor Gitaartabs leden! Maak gratis Gitaartabs account aan . 
Gitaar Tabs

Download, print en speel de Tab ♪ Green Day - Holiday

Meld je aan en print, download of speel binnen 15 sec mee Tab ♫ Green Day - Holiday.
Reeds 70.000 gitaristen zijn je voorgegaan.

Gratis Aanmelden Gitaartabs

Comments Green Day - Holiday - tab

kenworth

Kenworth 2012-08-12

Als je de tekst toevoegt kunnen we het helemaal goedkeuren.
Nu is de tab niet geheel volledig...


110823

110823 2011-11-30

Haha erg makkelijk nummer!!! EASY!!!!


110823

110823 2011-11-30

Haha erg makkelijk nummer!!! EASY!!!!


danaa123

Danaa123 2011-02-18

okee mooi nummer moet hem allen nog leren spelen... :D


RINUS ROBAARD

RINUS ROBAARD 2010-03-18

deze ziet er nice uit : )



x__PromQueen

X__PromQueen 2008-02-06

Deze is supper mooi Grijns
Moet het alleen nog leren spelen Verbaasd


x
PromQueen