• Streaming gitaar liedjes spelen
  • Leer gitaar spelen & gitaarlessen
  • 80.000 leden
Green Day – Horseshoes and Handgrenades

Intro

e-----------------------------
B-----------------------------
G----7-9-9--------------------
D-9--7-9-9--7-7-7--4-4-4------
A-9--5-7-7--7-7-7--4-4-4------
E-7---------5-5-5--2-2-2------  3x

e---------------------------
B---------------------------
G----7-9-9------------------
D-9--7-9-9--7-7-7--4--------
A-9--5-7-7--7-7-7--4--------
E-7---------5-5-5--2--------  

e-----------------------------
B-----------------------------
G----7-9-9--------------------
D-9--7-9-9--7-7-7--4-4-4------
A-9--5-7-7--7-7-7--4-4-4------
E-7---------5-5-5--2-2-2------  2x

e--------------------00000000-333333-----
B----------------------------------------
G--44444444-77777777---------------------
D--xxxxxxxx-xxxxxxxx---------------------
A--22222222-00000000---------------------
E--------------------44444444-333333-----


Verse:
 
e-----------------------------
B-----------------------------
G----7-9-9--------------------
D-9--7-9-9--7-7-7--4-4-4------
A-9--5-7-7--7-7-7--4-4-4------
E-7---------5-5-5--2-2-2------  8x


Chorus:

e-------------------------------------------------------------------------
B-------------------------------------------------------------------------
G-9999999999999-----------------------9999999999999999--------------------
D-9999999999999-7-8-9999999999999-8-7-9999999999999999-4444444444444------
A-7777777777777-7-8-9999999999999-8-7-7777777777777777-4444444444444------
E---------------5-6-7777777777777-6-5------------------2222222222222------


Verse


Cho
>> Registreer, speel & download <<
Meld nu aan en speel de rest van Green Day - Horseshoes And Handgrenades

>> Registreer, speel & download <<
rus


Bridge:

e----------------------------------------
B----------------------------------------
G----------------------------------------
D-999-7----999-7----999-7----999-7-------
A-999-7----999-7----999-7----999-7-------
E-777-5----777-5----777-5----777-5-------

Verse (nu riff maar 4x herhalen)


e--------------------00000000-333333-----
B----------------------------------------
G--44444444-77777777---------------------
D--xxxxxxxx-xxxxxxxx---------------------
A--22222222-00000000---------------------
E--------------------44444444-333333-----  4x


Verse (riff 6x herhalen)


Outro:

e|---------------------------------------------------------------------------|
B|---------------------------------------------------------------------------|
G|----7-9-------9-0-9-0-------7-9-------9-0-9-0-------7-9-------9-0-9-0------|
D|-9--7-9--7-9--9-0-9-0--7-9--7-9--7-9--9-0-9-0--7-9--7-9--7-9--9-0-9-0------|
A|-9--5-7--7-9--7-0-7-0--7-9--5-7--7-9--7-0-7-0--7-9--5-7--7-9--7-0-7-0------|
E|-7-------5-7-----------5-7-------5-7-----------5-7-------5-7---------------|

e|---------------------------------------------------------------------------|
B|---------------------------------------------------------------------------|
G|------7-9-------9-0-9-0----------------------------------------------------|
D|-7-9--7-9--7-9--9-0-9-0--7-999-7-------------------------------------------|
A|-7-9--5-7--7-9--7-0-7-0--7-999-7-------------------------------------------|
E|-5-7-------5-7-----------5-777-5-------------------------------------------|



More info