• Streaming gitaar liedjes spelen
  • Leer gitaar spelen & gitaarlessen
  • 75.000 leden
Green Day – Horseshoes and Handgrenades

Intro

e-----------------------------
B-----------------------------
G----7-9-9--------------------
D-9--7-9-9--7-7-7--4-4-4------
A-9--5-7-7--7-7-7--4-4-4------
E-7---------5-5-5--2-2-2------  3x

e---------------------------
B---------------------------
G----7-9-9------------------
D-9--7-9-9--7-7-7--4--------
A-9--5-7-7--7-7-7--4--------
E-7---------5-5-5--2--------  

e-----------------------------
B-----------------------------
G----7-9-9--------------------
D-9--7-9-9--7-7-7--4-4-4------
A-9--5-7-7--7-7-7--4-4-4------
E-7---------5-5-5--2-2-2------  2x

e--------------------00000000-333333-----
B----------------------------------------
G--44444444-77777777---------------------
D--xxxxxxxx-xxxxxxxx---------------------
A--22222222-00000000---------------------
E--------------------44444444-333333-----


Verse:
 
e-----------------------------
B-----------------------------
G----7-9-9--------------------
D-9--7-9-9--7-7-7--4-4-4------
A-9--5-7-7--7-7-7--4-4-4---
De rest van dit nummer alleen voor Gitaartabs leden! Maak gratis Gitaartabs account aan . 
Gitaar Tabs

Download, print en speel de Tab ♪ Green Day - Horseshoes And Handgrenades

Meld je aan en print, download of speel binnen 15 sec mee Tab ♫ Green Day - Horseshoes And Handgrenades.
Reeds 70.000 gitaristen zijn je voorgegaan.

Gratis Aanmelden Gitaartabs

Wat vind jij van deze song? Green Day - Horseshoes And Handgrenades


Plaats opmerkingen e.o. suggestie voor Green Day - Horseshoes And Handgrenades