• Streaming gitaar liedjes spelen
  • Leer gitaar spelen & gitaarlessen
  • 75.000 leden
Intro: 
   G#5    C#5   G#5    C#5   F#5    C#5     G#5	 x5
e|-----------------------------------------------|
B|-----------------------------------------------|
G|--------6------------6------------6------------|
D|-6------6-----6------6-----4------6-------6----|
A|-6------4-----6------4-----4------4-------6----|
E|-4------------4------------2--------------4----|

Intro lead:
e|-----------------------------------------------|
B|---------------------6-----7-7-77-6-------9v---|
G|--------6-6-6----------8-6----------8-6-8------|
D|-6-6-66-------6-6-66---------------------------|
A|-----------------------------------------------|
E|-----------------------------------------------|


Riff 1:
   F#G#5     C#5   A5G#5  x4 	 
e|--------|---------------|
B|--------|---------------|
G|--------|--6--
De rest van dit nummer alleen voor Gitaartabs leden! Maak gratis Gitaartabs account aan . 
Gitaar Tabs

Download, print en speel de Tab ♪ Green Day - I Don't Care

Meld je aan en print, download of speel binnen 15 sec mee Tab ♫ Green Day - I Don't Care.
Reeds 70.000 gitaristen zijn je voorgegaan.

Gratis Aanmelden Gitaartabs