• Streaming gitaar liedjes spelen
  • Leer gitaar spelen & gitaarlessen
  • 75.000 leden
                                Know Your Enemy                                 

                                   Green Day

		       Rhythmguitar (2x) en Leadguitar (1x)

 			 Tab door BasG [Kaham] m.b.v. GP5

Duratie
---------------
W - whole (heel)
H - half
Q - quarter (kwart)
E - 8th
. - note dotted (noot met stip, +50%)


Tablatuur Legenda
----------------
x - dead note
/ - slide into from below or out of upwards
\ - slide into from above or out of downwards
~ - Vibrato


>>>>>>>>>Rhythmguitar<<<<<<<<<<<<<<<<<<<<<

Intro en eerste refrein (3 maten drums, 4e invallen op laatste tel)

    W       W       W        H.            E   E   
E||-------|-------|-------|-----------------------|
B||-------|-------|-------|-----------------------|
G||-------|-------|-------|-----------------------|
D||-------|-------|-------|--------------------0--|
A||-------|-------|-------|----------------7s--0--|
E||-------|-------|-------|----------------7s--0--|

*3e keer herhalen valt zang in
   Q    E  E  E  E  E  E     E  E  E  E  E  E  E  E     
|-------------------------|--------------------------|
|-------------------------|--------------------------|
|o---------9--9-----------|-----------9--9----------o|
|o-9----9--9--9--9--9--x--|--x--9--9--9--9--9--9-(7)o|3x
|--9----9--7--7--9--9--x--|--x--9--9--7--7--9--9-(7)-|
|--7----7--------7--7--x--|--x--7--7--------7--7-(5)-|


			   	*2e Gitaar valt in met zelfde schema
   Q    E  E  E  E  E  E     E  E  E  E  E  E  E  E   
|-------------------------|--------------------------|
|-------------------------|--------------------------|
|----------9--9-----------|--------------------------|
|--9----9--9--9--9--9--x--|--x--4--4--4--4--4--4--4--|
|--9----9--7--7--9--9--x--|--x--4--4--4--4--4--4--4--|
|--7----7--------7--7--x--|--x--2--2--2--2--2--2--2--|

----------------

Coupletten en refrein (ookwel het lange saaie slagstuk)
8x herhalen:
*1,2,7,8: Refrein - 2 gitaren
*3,4,5,6: Couplet - 1 gitaar
                                                     
   E  E  E  E  E  E  E  E     E  E  E  E  E  E  E  E   
|--------------------------|--------------------------|
|--------------------------|--------------------------|
|o----------9--9-----------|-----------9--9-----------|
|o-9--9--9--9--9--9--9--x--|--x--9--9--9--9--9--9-(7)-|
|--9--9--9--7--7--9--9--x--|--x--9--9--7--7--9--9-(5)-|
|--7--7--7--------7--7--x--|--x--7--7--------7--7-(5)-|


   E  E  E  E  E  E  E  E     E  E  E  E  E  E  E  E   
|--------------------------|--------------------------|
|--------------------------|--------------------------|
|-----------9--9-----------|-------------------------o|
|--9--9--9--9--9--9--9-(0)-|--4--4--4--4--4--4--4--4-o|8x
|--9--9--9--7--7--9--9-(0)-|--4--4--4--4--4--4--4--4--|
|--7--7--7--------7--7-(0)-|--2--2--2--2--2--2--2--2--|

----------------

Brug

   E  E  E  E  E  E  E  E     E  E  E  E  E  E  E  E   
|--------------------------|--------------------------|
|--------------------------|--------------------------|
|o-9--9--9--9--9--9--9-----|-----------------------9-o|
|o-9--9--9--9--9--9--9--9--|--9--9--9--9--9--9--9--9-o|3x
|--7--7--7--7--7--7--7--9--|--9--9--9--9--9--9--9--7--|
|-----------------------7--|--7--7--7--7--7--7--7-----|

*Slechts 1 gitaar deze 2 maten
   Q    E  E  E  E  E  E     E  E  E  E  E  E  E  E     
|-------------------------|--------------------------|
|-------------------------|--------------------------|
|----------4--4-----------|-----------4--4-----------|
|--4----4--4--4--4--4--x--|--x--4--4--4--4--4--4-(7)-|
|--4----4--2--2--4--4--x--|--x--4--4--2--2--4--4-(7)-|
|--2----2--2--2--2--2--x--|--x--2--2--2--2--2--2-(5)-|

-------------

Gitaarsolo

   E  E  E  E  E  E  E  E     E  E  E  E  E  E  E  E   
|--------------------------|--------------------------|
|--------------------------|--------------------------|
|o-
De rest van dit nummer alleen voor Gitaartabs leden! Maak gratis Gitaartabs account aan . 
Gitaar Tabs

Download, print en speel de Tab ♪ Green Day - Know Your Enemy

Meld je aan en print, download of speel binnen 15 sec mee Tab ♫ Green Day - Know Your Enemy.
Reeds 70.000 gitaristen zijn je voorgegaan.

Gratis Aanmelden Gitaartabs

Wat vind jij van deze song? Green Day - Know Your Enemy


Plaats opmerkingen e.o. suggestie voor Green Day - Know Your Enemy