• Streaming gitaar liedjes spelen
  • Leer gitaar spelen & gitaarlessen
  • 80.000 leden
                                Know Your Enemy                                 

                                   Green Day

		       Rhythmguitar (2x) en Leadguitar (1x)

 			 Tab door BasG [Kaham] m.b.v. GP5

Duratie
---------------
W - whole (heel)
H - half
Q - quarter (kwart)
E - 8th
. - note dotted (noot met stip, +50%)


Tablatuur Legenda
----------------
x - dead note
/ - slide into from below or out of upwards
\ - slide into from above or out of downwards
~ - Vibrato


>>>>>>>>>Rhythmguitar<<<<<<<<<<<<<<<<<<<<<

Intro en eerste refrein (3 maten drums, 4e invallen op laatste tel)

    W       W       W        H.            E   E   
E||-------|-------|-------|-----------------------|
B||-------|-------|-------|-----------------------|
G||-------|-------|-------|-----------------------|
D||-------|-------|-------|--------------------0--|
A||-------|-------|-------|----------------7s--0--|
E||-------|-------|-------|----------------7s--0--|

*3e keer herhalen valt zang in
   Q    E  E  E  E  E  E     E  E  E  E  E  E  E  E     
|-------------------------|--------------------------|
|-------------------------|--------------------------|
|o---------9--9-----------|-----------9--9----------o|
|o-9----9--9--9--9--9--x--|--x--9--9--9--9--9--9-(7)o|3x
|--9----9--7--7--9--9--x--|--x--9--9--7--7--9--9-(7)-|
|--7----7--------7--7--x--|--x--7--7--------7--7-(5)-|


			   	*2e Gitaar valt in met zelfde schema
   Q    E  E  E  E  E  E     E  E  E  E  E  E  E  E   
|-------------------------|--------------------------|
|-------------------------|--------------------------|
|----------9--9-----------|--------------------------|
|--9----9--9--9--9--9--x--|--x--4--4--4--4--4--4--4--|
|--9----9--7--7--9--9--x--|--x--4--4--4--4--4--4--4--|
|--7----7--------7--7--x--|--x--2--2--2--2--2--2--2--|

----------------

Coupletten en refrein (ookwel het lange saaie slagstuk)
8x herhalen:
*1,2,7,8: Refrein - 2 gitaren
*3,4,5,6: Couplet - 1 gitaar
                                                     
   E  E  E  E  E  E  E  E     E  E  E  E  E  E  E  E   
|--------------------------|--------------------------|
|--------------------------|--------------------------|
|o----------9--9-----------|-----------9--9-----------|
|o-9--9--9--9--9--9--9--x--|--x--9--9--9--9--9--9-(7)-|
|--9--9--9--7--7--9--9--x--|--x--9--9--7--7--9--9-(5)-|
|--7--7--7--------7--7--x--|--x--7--7--------7--7-(5)-|


   E  E  E  E  E  E  E  E     E  E  E  E  E  E  E  E   
|--------------------------|--------------------------|
|--------------------------|--------------------------|
|-----------9--9-----------|-------------------------o|
|--9--9--9--9--9--9--9-(0)-|--4--4--4--4--4--4--4--4-o|8x
|--9--9--9--7--7--9--9-(0)-|--4--4--4--4--4--4--4--4--|
|--7--7--7--------7--7-(0)-|--2--2--2--2--2--2--2--2--|

----------------

Brug

   E  E  E  E  E  E  E  E     E  E  E  E  E  E  E  E   
|--------------------------|--------------------------|
|--------------------------|--------------------------|
|o-9--9--9--9--9--9--9-----|-----------------------9-o|
|o-9--9--9--9--9--9--9--9--|--9--9--9--9--9--9--9--9-o|3x
|--7--7--7--7--7--7--7--9--|--9--9--9--9--9--9--9--7--|
|-----------------------7--|--7--7--7--7--7--7--7-----|

*Slechts 1 gitaar deze 2 maten
   Q    E  E  E  E  E  E     E  E  E  E  E  E  E  E     
|-------------------------|--------------------------|
|-------------------------|--------------------------|
|----------4--4-----------|-----------4--4-----------|
|--4----4--4--4--4--4--x--|--x--4--4--4--4--4--4-(7)-|
|--4----4--2--2--4--4--x--|--x--4--4--2--2--4--4-(7)-|
|--2----2--2--2--2--2--x--|--x--2--2--2--2--2--2-(5)-|

-------------

Gitaarsolo

   E  E  E  E  E  E  E  E     E  E  E  E  E  E  E  E   
|--------------------------|--------------------------|
|--------------------------|--------------------------|
|o----------9--9-----------|-----------9--9-----------|
|o-9--9--9--9--9--9--9--x--|--x--9--9--9--9--9--9-(7)-|
|--9--9--9--7--7--9--9--x--|--x--9--9--7--7--9--9-(5)-|
|--7--7--7--------7--7--x--|--x--7--7--------7--7-(5)-|


   E  E  E  E  E  E  E  E     E  E  E  E  E  E  E  E   
|--------------------------|--------------------------|
|--------------------------|--------------------------|
|-----------9--9-----------|-------------------------o|
|--9--9--9--9--9--9--9-(0)-|--4--4--4--4--4--4--4--4-o|2x
|--9--9--9--7--7--9--9-(0)-|--4--4--4--4--4--4--4--4--|
|--7--7--7--------7--7-(0)-|--2--2--2--2--2--2--2--2--|

-------------

Brug2

   E  E  E  E  E  E  E  E     E  E  E  E  E  E  E  E   
|--------------------------|--------------------------|
|--------------------------|--------------------------|
|o-9--9--9--9--9--9--9-----|-----------------------9-o|
|o-9--9--9--9--9--9--9--9--|--9--9--9--9--9--9--9--9-o|2x
|--7--7--7--7--7--7--7--9--|--9--9--9--9--9--9--9--7--|
|-----------------------7--|--7--7--7--7--7--7--7-----|

   E  E  E  E  E  E  E  E     E  E  E  E  E  E  E  E   
|--------------------------|--------------------------|
|--------------------------|--------------------------|
|--9--9--9--9--9--9--9-----|-----------------------11-|
|--9--9--9--9--9--9--9--9--|--9--9--9--9--9--9--9--11-|
|--7--7--7--7--7--7--7--9--|--9--9--9--9--9--9--9--9--|
|-----------------------7--|--7--7--7--7--7--7--7-----|

*Slechts 1 gitaar deze 2 maten
   Q    E  E  E  E  E  E     E  E  E  E  E  E  E  E     
|-------------------------|---------------------------|
|-------------------------|---------------------------|
|o---------4--4-----------|-----------4--4-----------o|
|o-4----4--4--4--4--4--x--|--x--4--4--4--4--4--4-(0)-o|2x
|--4----4--2--2--4--4--x--|--x--4--4--2--2--4--4-(0)--|
|--2----2--2--2--2--2--x--|--x--2--2--2--2--2--2-(0)--|

----

couplet - 1 gitaar

   Q    E  E  E  E  E  E     E  E  E  E  E  E  
>> Registreer, speel & download <<
Meld nu aan en speel de rest van Green Day - Know Your Enemy

>> Registreer, speel & download <<
E  E     
|-------------------------|---------------------------|
|-------------------------|---------------------------|
|o---------4--4-----------|-----------4--4-----------o|
|o-4----4--4--4--4--4--x--|--x--4--4--4--4--4--4-(0)-o|3x
|--4----4--2--2--4--4--x--|--x--4--4--2--2--4--4-(0)--|
|--2----2--2--2--2--2--x--|--x--2--2--2--2--2--2-(0)--|

   Q    E  E  E  E  E  E     E  E  E  E  E  E  E  E     
|-------------------------|---------------------------|
|-------------------------|---------------------------|
|----------4--4-----------|---------------------------|
|--4----4--4--4--4--4--x--|--4--4--4--4--4--4--4--4---|3x
|--4----4--2--2--4--4--x--|--4--4--4--4--4--4--4--4---|
|--2----2--2--2--2--2--x--|--2--2--2--2--2--2--2--2---|

---------------

Interlude/refrein - 1 gitaar

*3e keer herhalen valt zang in
   Q    E  E  E  E  E  E     E  E  E  E  E  E  E  E     
|-------------------------|--------------------------|
|-------------------------|--------------------------|
|o---------9--9-----------|-----------9--9----------o|
|o-9----9--9--9--9--9--x--|--x--9--9--9--9--9--9-(7)o|3x
|--9----9--7--7--9--9--x--|--x--9--9--7--7--9--9-(7)-|
|--7----7--------7--7--x--|--x--7--7--------7--7-(5)-|


			   	*2e Gitaar valt in met zelfde schema
   Q    E  E  E  E  E  E     E  E  E  E  E  E  E  E   
|-------------------------|--------------------------|
|-------------------------|--------------------------|
|----------9--9-----------|--------------------------|
|--9----9--9--9--9--9--x--|--x--4--4--4--4--4--4--4--|
|--9----9--7--7--9--9--x--|--x--4--4--4--4--4--4--4--|
|--7----7--------7--7--x--|--x--2--2--2--2--2--2--2--|

-----------------

Refrein met volle sterkte weer (2 gitaren)

   E  E  E  E  E  E  E  E     E  E  E  E  E  E  E  E   
|--------------------------|--------------------------|
|--------------------------|--------------------------|
|o----------9--9-----------|-----------9--9-----------|
|o-9--9--9--9--9--9--9--x--|--x--9--9--9--9--9--9-(7)-|
|--9--9--9--7--7--9--9--x--|--x--9--9--7--7--9--9-(5)-|
|--7--7--7--------7--7--x--|--x--7--7--------7--7-(5)-|


   E  E  E  E  E  E  E  E     E  E  E  E  E  E  E  E   
|--------------------------|--------------------------|
|--------------------------|--------------------------|
|-----------9--9-----------|-------------------------o|
|--9--9--9--9--9--9--9-(0)-|--4--4--4--4--4--4--4--4-o|2x
|--9--9--9--7--7--9--9-(0)-|--4--4--4--4--4--4--4--4--|
|--7--7--7--------7--7-(0)-|--2--2--2--2--2--2--2--2--|

--------------

Outro - 2 gitaren

   E  E  E  E  E  E  E  E     E  E  E  E  E  E  E  E   
|--------------------------|--------------------------|
|--------------------------|--------------------------|
|o----------9--9-----------|-----------9--9-----------|
|o-9--9--9--9--9--9--9--x--|--x--9--9--9--9--9--9-(7)-|
|--9--9--9--7--7--9--9--x--|--x--9--9--7--7--9--9-(5)-|
|--7--7--7--------7--7--x--|--x--7--7--------7--7-(5)-|


   E  E  E  E  E  E  E  E     E  E  E  E  E  E  E  E   
|--------------------------|--------------------------|
|--------------------------|--------------------------|
|-----------9--9-----------|-------------------------o|
|--9--9--9--9--9--9--9-(0)-|--4--4--4--4--4--4--4--4-o|2x
|--9--9--9--7--7--9--9-(0)-|--4--4--4--4--4--4--4--4--|
|--7--7--7--------7--7-(0)-|--2--2--2--2--2--2--2--2--|

   E   H.
|--------------------------|
|--------------------------|
|--------------------------|
|-/9\----------------------|
|-/9\----------------------|
|-/7\----------------------|


>>>>>>>>>Leadguitar<<<<<<<<<<<<<<<<<<<<<

Noot: De leadguitar is niet 100% correct, maar klinkt wel prima.

Slechts 2 licks:

Brug en Brug 2:

   E  E  E  E  E  E  E  E     E  E  E  E  E  E  E  E  
|--------7-----------7-----|--------------------------|
|--5--5-----5--5--4--------|--------5--------7--------|
|o----------------------4--|--4--4-----4--4-----4--4-o|
|o-------------------------|-------------------------o|x2
|--------------------------|--------------------------|
|--------------------------|--------------------------|

   E  E  E  E  E  E  E  E     E  E  E  E  E  E  E  E  
|--------7-----------7-----|----------------------------|
|--5--5-----5--5--4--------|--------5--------7----------|
|-----------------------4--|--4--4-----4--4-----4--5/7--|
|--------------------------|----------------------------|
|--------------------------|----------------------------|
|--------------------------|----------------------------|

*Bij brug 2 eindigen op 5/11 ipv 5/7

----------------

Solo (ook spelen over outro)
   E   E   E   E   E   E   Q         E   E   E   E   E   E   Q     
|---------------------------------|------------------11-------------|
|--12--12--12------12--12---------|------12------12------12---------|
|o-------------11----------11~----|--11------11--------------11~----|
|o--------------------------------|---------------------------------|
|---------------------------------|---------------------------------|
|---------------------------------|---------------------------------|

   E   E   E   E   E   E   Q         E   E   E   E   E   E   E   E     
|--------------------------------|----------------------------------|
|-12--12--12------12--12---------|--14--14--14--14--14--14--14------|
|-------------11----------11~----|------------------------------11-o|
|--------------------------------|---------------------------------o|
|--------------------------------|----------------------------------|2x
|--------------------------------|----------------------------------|

*Na 1e keer solo ga je door op 2e brug, ik slide terug vanaf de 11e positie naar de 4e, waarbij 

het laatste deel slide hoorbaar is.
*Wanneer je de solo over het outro heen speelt, eindig dan NA de volledige solo nog op
2e snaar 12e fret (b-noot)
-------------------

More info