• Streaming gitaar liedjes spelen
  • Leer gitaar spelen & gitaarlessen
  • 75.000 leden
Start bij "She wears her overcoat"
e|---------------------------------------------------------------------------|
B|---------------------------------------------------------------------------|
G|---------------------------------------------------------------------------|
D|---------------------------------------------------------------------------|
A|-------------------------7777777-7-66-7-9--------------------------------------|
E|-7777777777777777-------------------------- 777777777777777--2222222222222222---|
^^^^^^^2x

refrein

gitaar 1
e|---------------------------------------------------------------------------|
B|---------------------------88888888----------------------------------------|
G|-------------------9999999999999999----------------------------------------|
D|-9999999999999999--9999999999999999--99999999--444-------------------------|
A|-9999999999999999--7777777777777777--99999999--444-------------------------|
E|-7777777777777777--------------------77777777--222-------------------------|

gitaar 2
e|---------------------------------------------------------------------------|
B|---------------------------------------------------------------------------|
G|-1616161616161616-1414141414141414-13131313-161616--13-1212121212121212----|
D|--x-x-x-x-x-x-x-x--x-x-x-x-x-x-x-x--x-x-x-x--x-x-x--x--x-x-x-x-x-x-x-x-----|
A|-1414141414141414-1212121212121212-11111111-141414--11-1010101010101010----|
E|---------------------------------------------------------------------------|

e|---------------------------------------------------------------------------|
B|---------------------------------------------------------------------------|
G|-1616161616161616-111111---------------------------------------------------|
D|--x-x-x-x-x-x-x-x-x-x-x----------------------------------------------------|
A|-1414141414141414-9-9-9----------------------------------------------------|
E|---------------------------------------------------------------------------|




gitaar 1
e|---------------------------------------------------------------------------|
B|---------------------------------------------------------------------------|
G|------9999-----------------------------------------------------------------|
D|-9999-9999-----------------------------------------------------------------|
A|-9999-7777-----------------------------------------------------------------|
E|-7777----------------------------------------------------------------------|

gitaar 2
e|---------------------------------------------------------------------------|
B|----7---9-7----------------------------------------------------------------|
G|-88---8--------------------------------------------------------------------|
D|---------------------------------------------------------------------------|
A|---------------------------------------------------------------------------|
E|---------------------------------------------------------------------------|
^^^pre-verse x4



gitaar 1
e|-----------------------------------------------------------------------------|
B|-----------------------------------------------------------------------------|
G|----------------------------------------------------------
De rest van dit nummer alleen voor Gitaartabs leden! Maak gratis Gitaartabs account aan . 
Gitaar Tabs

Download, print en speel de Tab ♪ Green Day - Last Of The American Girls

Meld je aan en print, download of speel binnen 15 sec mee Tab ♫ Green Day - Last Of The American Girls.
Reeds 70.000 gitaristen zijn je voorgegaan.

Gratis Aanmelden Gitaartabs